Stone Sour - Blue Study Chords & Tabs

 

Blue Study Chords & Tabs

Stone Sour Chords & Tabs

Version: 1 Type: Bass Tab 0 ratings
1 star 2 stars 3 stars 4 stars 5 stars
comments

Blue Study Bass Tab

   
Band- Stone Sour
Song- Blue Study

Tuning: low to high: B,E,A,D
Key ' - take that as hit hard, so it's noticable
 
Enter after two bars

Intro:
D:---------------------|
A:-2h4-4-4-4-4---------|
E:---------------------|
B:-------------6p5-5-5-|

Pre Verse: 
D:-----------------------:-------------------:-------------2-2-2-:---------------------------|
A:-2h4-4-4-2-0-----------:-2-4-4-4-2-0-------:-2-4-4-4-2-0-------:-2h4-4-4-4-4-4-2-0---------|
E:-------------0-0-0-0-0-:-------------------:-------------------:-------------------0-0-0-0-|
B:-----------------------:-------------7-5-5-:-------------------:---------------------------|

Verse:
[ Tab from: http://www.guitartabs.cc/tabs/s/stone_sour/blue_study_btab.html ]
D:---------------------------:----------------------------|
A:-2h4-4-4-4-4-4-2-0---------:-2h4-4-4-4-4-2-0--------'-'-|
E:-------------------0-0-0-0-:-----------------0-0-0--0-0-|
B:---------------------------:----------------------------|

Chorus:
D:-5---4-----------|
A:---7---7-6-4-4-4-|
E:-----------------|
B:-----------------|

Post Chorus:

D:-----------2-2-2-:-------------------|
A:-2h4-4-4-4-------:-2h4-4-4-4---------|
E:-----------------:-----------2-0-0-0-|
B:-----------------:-------------------|

Through the guitar solo, play the Verse

Breakdown:

D:-------------------|
A:-2-4-4-4-4-5-4-4-4-|
E:-------------------|
B:-------------------|

End:

D:-----------------------:---|
A:-4-0-2-0-4-0-2-0-4-3-2-:-4-|
E:-----------------------:---|
B:-----------------------:---|
Comments