Stone Sour - Blotter Chords & Tabs

 

Blotter Chords & Tabs

Stone Sour Chords & Tabs

Version: 1 Type: Bass Tab 0 ratings
1 star 2 stars 3 stars 4 stars 5 stars
comments

Blotter Bass Tab

   
Band- Stone Sour
Song- Blotter

Tuning: B E A D (G)
Can be played on a drop-tuned 4 string, though probably better on a 5 string with a 
B.

Heres are the riffs/notes

Riff one: intro
D----------------------------------------------------|
A-----------------4----------------------------------|
E-------1-0-----------3-4-3--------1-0-------3---333-|
B-2-0-2-----2-0-2---2--------2-0-2-----2-0-2---2-----|


Riff two
D-----------------------|
A-----------------------|
E-------3---------3-----|
B-2-0-2---0-2-0-2---0-2-|

Riff three: chorus
- the open notes on the B string are just fills between other notes
D------------------------------------------------|
A------------------------------------------------|
E--------3------------5---------3-----------5----|
B-2---2-0---0h2--0h3-----2---2-0---0h2--0h3------|
[ Tab from: http://www.guitartabs.cc/tabs/s/stone_sour/blotter_btab.html ]
Riff four
D-------------------------------------------------|
A-------------------------------------------------|
E-------------------------------------------------|
B-3-0-3-0-3-0-3-0-3-0-3-0-2-0-2-0-2-0-2-0-2-0-2-0-|

Riff five
D----------------------------------------------------|
A----------------------------------------------------|
E----------------------------------------------------|
B-5-2-0-2--5-2-0-2-0h2/666--5-2-0-2--5-2-0-2-0h2/333-|

Riff six: intro to bass solo near end
D------------------------------|
A---------4----4-4-2-4-2-4-----|
E------------------------------|
B-2-----2---2--------------2---|

Riff seven: second part of bass solo
D--------------------------|
A-----------4-4-2-4-2-4----|
E--------------------------|
B-0-2-0-2---------------2--|

Riff eight: pre ending
D------------------------|
A------------------------|
E------------------------|
B-222-0-222-0-222-0-2320-|

Order of riffs (and number of times to repeat each):
---------------
Riff one (x4) - after x2, guitar joins bass
Riff two (x4)
Riff three (x1)
Riff four (x2)
Riff two (x8)
Riff three (x1)
Riff four (x2)
Riff five (x2)
Riff six (x1)
Riff seven (x3)
Riff eight (x4)
Riff four (x4)
Riff five (x4)
Comments