Stone Roses - Waterfall Chords & Tabs

 

Waterfall Chords & Tabs

Stone Roses Chords & Tabs

Version: 3 Type: Tab 0 ratings
1 star 2 stars 3 stars 4 stars 5 stars
comments

Waterfall Tab

  
  MAIN RIFF : 
  
  -------------------------------------|-----------------------------------|
  ------7-----------------0------------|------7----------------0-----------|
  ---------6--------s/4--------3----4--|--6-------6------s/4-------3----4--|
  --4---------4------------------------|--4----------4---------------------|
  -------------------------------------|-----------------------------------|
  -------------------------------------|-----------------------------------|

  MIDDLE :
[ Tab from: http://www.guitartabs.cc/tabs/s/stone_roses/waterfall_tab_ver_3.html ]
  -------------------------------------------|------------------------------|
  ----7-----------7----------7-----------7---|-----7--------7-------7-----7-|
  -------------------------------------------|----------------------------6-|
  -9-----9-----8-----8----6------6---6------6|--9-----9--8-----8--6----6--6-|
  -------------------------------------------|----------------------------4-|
  -------------------------------------------|------------------------------|

  CHORUS :

  --------------------------------------|
  ------7-----------7----------7--------|
  --------------------------------------|
  ---9-----9-----8-----8----6------6----|
  --------------------------------------|
  --------------------------------------|
Comments