Stone Roses - Waterfall Chords & Tabs

 

Waterfall Chords & Tabs

Stone Roses Chords & Tabs

Version: 1 Type: Bass Tab

Waterfall Bass Tab

   
-------------------------------------------------------------------------------
			     WATERFALL - Stone Roses
-------------------------------------------------------------------------------

Tabbed By : System of a Dog
e-mail: joe_h_wales@hotmail.co.uk

Tuning: Standard

Introduction 
G|----------------------------|
D|----------------------------|x4
A|----------------------------|
E|0-0-2-0-4-0-0-5-4-0-2-4-2-0-|

Verse

{G|----------------------------|     G|----------------------------|   }  
{D|----------------------------|x2   D|----------------------------|x2 }  x4
{A|----------------------------|     A|5-5-0----4-5-5-5-5----------|   }
{E|0-0-2-0-4-0-0-5-4-0-2-4-2-0-|     E|----------------------------|   }
[ Tab from: http://www.guitartabs.cc/tabs/s/stone_roses/waterfall_btab.html ]
Chorus
		
 G|----------------------------|     G|---------------------------|    
 D|----------------------------|X3   D|---------------------------|  
 A|0-0-0-2-4-5-5-5-4-2-4-------|     A|---------------------------|    
 E|----------------------------|     E|0-0-2-0-4-0-0-5-4-0-2-4-2-0|    

 G|----------------------------|     G|---------------------------|    
 D|----------------------------|X3   D|---------------------------|X2 
 A|0-0-0-2-4-5-5-5-4-2-4-------|     A|---------------------------|    
 E|----------------------------|     E|0-0-2-0-4-0-0-5-4-0-2-4-2-0|    

Break

G|----------------------------|---------------------------|
D|----------------------------|---------------------------|
A|0-0-2-0-4-0-0-5-4-0-2-4-2-0-|---------------------------|x2
E|----------------------------|0-0-2-0-4-0-0-5-4-0-2-4-2-0|

G|---------------------------|---------------------------|
D|---------------------------|---------------------------|
A|---------------------------|5-5-0--4-5-5-5-5-----------|x2
E|0-0-0--0-0-0--0-0-0--0-0-0-|---------------------------|

| /  slide up
| \  slide down
| h  hammer-on
| p  pull-off
| ~  vibrato
| +  harmonic
| x  Mute note
===============================================================================