Stone Roses - This Is The One Chords & Tabs

 

This Is The One Chords & Tabs

Stone Roses Chords & Tabs

Version: 2 Type: Bass Tab 0 ratings
1 star 2 stars 3 stars 4 stars 5 stars
comments

This Is The One Bass Tab

   
THE STONE ROSES
This Is the One (Squire/Brown)

  Repeat

G|-----------------|----------------|
D|-----------------|----------------|
A|-----------------|----------------|
E|-O-O-O-O-O-O-O-O-|---O--O-O-O-4-5-|

G|----------------|---------------|
D|----------------|---------------|
A|----------------|--------7-6----|
E|-7--7-7-7-7-7-7-|--7-7-7-----7--|
[ Tab from: http://www.guitartabs.cc/tabs/s/stone_roses/this_is_the_one_btab_ver_2.html ]
G|----------------|--------------------|
D|----------------|--------------------|
A|----------------|-----------/9-7-6-7-|
E|-5--5-5-5-5-5-5-|-7-7-7-7-7----------|

G|----------------|----------------|
D|----------------|----------------|
A|-7-7-7-7-7-7-7--|-7-7-7-7-/9-7-6-|
E|----------------|----------------|

other bit goes A-B-A-B-E with little fills
Comments