Stone Roses - Ten Storey Love Song Solo Chords & Tabs

 

Ten Storey Love Song Solo Chords & Tabs

Stone Roses Chords & Tabs

Version: 1 Type: Tab 0 ratings
1 star 2 stars 3 stars 4 stars 5 stars
comments

Ten Storey Love Song Solo Tab

artist : the stone roses
song   : ten storey love song [just the solo]
tabbed by greg nash [ meathane@hotmail.com ]

this is a quality solo, i found no good versions of it on the net so i thought id tab it, here it is, enjoy
[ Tab from: http://www.guitartabs.cc/tabs/s/stone_roses/ten_storey_love_song_solo_tab.html ]
E ----------------------------------------------------------------------------------------------
A ----------------------------------------------------------------------------------------------
D ----------------------------9-7~--------------------------------------------------------------
G -7~~-6h7-9~~--7\6-7~~---7\6-------------------9------9~------------------14p12----14~~--------
B -----------------------------------10p8\7-8p7--7h8-7-------15\14p12-14p12------12-------------
e ----------------------------------------------------------------------------------------------


E ----------------------------------------------------------------------------------------------
A ----------------------------------------------------------------------------------------------
D -12-14----------14-12----14~------------------------------------------------------------------
G ------11-12-11-------11---------------------12----14h16-14-14---------------------------------
B -----------------------------15-14-14p12-12---12-------------14-15-17-19-17-15-17-15-14-15-15\
e ----------------------------------------------------------------------------------------------
Comments