Stone Roses - Made Of Stone Chords & Tabs

 

Made Of Stone Chords & Tabs

Stone Roses Chords & Tabs

Version: 4 Type: Tab

Made Of Stone Tab

Subject:       /s/stone_roses/made_of_stone.tab

This is the TAB for the intro/outro of this song:

E------10------------10---------------------------9--------------------|
B-----------8-------------8--------8---------------------8-------------|
G--9------------9-------------9-------------9------------------9-------|
D----------------------------------------------------------------------|
A----------------------------------------------------------------------|
E----------------------------------------------------------------------|

E---9---------------------------8------------------8--------------------|
B--------8--------8------------------8-----------------8----------8-----|
G-------------9-----------9---------------9------------------9----------|
D-----------------------------------------------------------------------|
A-----------------------------------------------------------------------|
E-----------------------------------------------------------------------|
[ Tab from: http://www.guitartabs.cc/tabs/s/stone_roses/made_of_stone_tab_ver_4.html ]
E--------7-----------------7-------------------------------------------|
B-------------8-----------------8-------7h8p7--------------------------|
G--9---------------9---------------------------------------------------|
D----------------------------------------------------------------------|
A----------------------------------------------------------------------|
E----------------------------------------------------------------------|

E-------10-------------10---------------------------9-----------------|
B-------------8---------------8----------8---------------8------------|
G--9---------------9---------------9-----------9-------------9--------|
D---------------------------------------------------------------------|
A---------------------------------------------------------------------|
E---------------------------------------------------------------------|

E--9----------------------8-------------8---------------------7-------|
B------8-------8-------------8--------------8-------8--------8--------|
G----------9---------9-----------9--------------9------------9--------|
D---------------------------------------------------------------------|
A---------------------------------------------------------------------|
E---------------------------------------------------------------------|

The next bit is after the intro only:

E--------------------------------------------|
B--------------------------------------------|
G--------------------------------------------|
D--14-----12---------------------------------|
A-------------------14-----12------10--------|
E--------------------------------------------|

Then the chords start ( Em, D, C, B etc.......if you want to know
these then you can find them in the made_of_stone.crd file).