Stone Roses - Made Of Stone Chords & Tabs

 

Made Of Stone Chords & Tabs

Stone Roses Chords & Tabs

Version: 2 Type: Tab 0 ratings
1 star 2 stars 3 stars 4 stars 5 stars
comments

Made Of Stone Tab

   
#----------------------------------PLEASE NOTE---------------------------------#
#This file is the author's own work and represents their interpretation of the #
#song. You may only use this file for private study, scholarship, or research. #
#------------------------------------------------------------------------------#

THE STONE ROSES
Made Of Stone (Squire/Brown)
Capo on 2nd fret

[Intro]

E---8-----8----------7-----7----------6-----6-----------5-----5------------
B-----6-----6---6------6-----6---6------6-----6---6-------6-----6--5h6p5h6-
G-------7-----7----------7-----7----------7-----7-----------7--------------
D-2----------------2----------------2----------------2---------------------
A--------------------------------------------------------------------------
E--------------------------------------------------------------------------

E---8-----8----------7-----7----------6-----6--------5-
B-----6-----6---6------6-----6---6------6-----6---6--6-
G-------7-----7----------7-----7----------7-----7----7-
D-2----------------2----------------2----------------2-
A------------------------------------------------------
E------------------------------------------------------

[Verse 1 + 2]
   Dm                           c                                         A#
E--1----------------------------0-----------------------------------------1---
B--3----------------------------1-----------------------------------------3---
G--2----------------------------0-----------------------------------------3---
D--0----------------------------2-----------------------------------------3---
A-------------------------------3---------------------------------------------
E-----------------------------------------------------------------------------
                                   A  Mute
E------------------------------------------------------1-0-1----
B------------------------------------------------------------1--
G------------------------------2-2-0-0----------2-2-0-----------
D------------------------------2-2-0-0-3-3-2-2--2-2-0-----------
A---------------------------------------------------------------
E---------------------------------------------------------------
    Dm                               c
E--1-----1------1------0---0-1-0----0------0------0----0---0-1-0----
B--3---3----3------3-----3-------3--1----1------1----1---1-------0--
G--2-2--------2---------------------0--0------0---------------------
D--0--------------------------------2-------------------------------
A-------------------------------------------------------------------
E-------------------------------------------------------------------
         A#                                A 
E--1-------1------1------1-------1---------0--------0---------0---------0-
B--3-----3------3------3-------3---------2--------2---------2---------2---
G--3---3------3------3-------3---------2--------2---------2---------2-----
D--3---------------------------------2--------0---------------------------
A------------------------------------------------------3---------2--------
E-------------------------------------------------------------------------
[chorus]
  F           c                 A#                                  F
E-1-----------3-----------------1-------1-------1-------1-----------1-------
B-1-----------5-----------------3-----3-------3-------3-------3-----1-------
G-2-----------5-----------------3---3-------3-------3-------3---3---2-------
D-3-----------5-----------------3-----------------------------------3-------
A-3-----------3-----------------------------------------------------3-------
E-1-----------------------------------------------------------------1-------
  I      fantasize     when the streets are cold and lonely and the cars they

                           F                  c
E--------------------------1------------------3-----------------
B--------------------------1------------------5-----------------
G--------------------------2------------------5-----------------
D--------------3--3--3--3--3------------------5-----------------
A--------------3--3--3--3--3------------------3-----------------
E--------------1--0--1--0--1------------------------------------
 burn below me don't these times     fill you eyes     when the 
[ Tab from: http://www.guitartabs.cc/tabs/s/stone_roses/made_of_stone_tab_ver_2.html ]
  A#                                 F
E-1-------1-------1--------1------1--1----------------------------------
B-3-----3-------3--------3------3----1----------------------------------
G-3---3-------3--------3------3------2----------------------------------
D-3----------------------------------3----------------------------------
A------------------------------------3----------------------------------
E------------------------------------1----------------------------------
 streets are cold and lonely and the cars they burn below me are you all

[chorus 1 ending]

  c          Dm                                c
E-0-----0----1-----1------1-------0---0-1-0----0------0------0----0---0-1-0----
B-1-----1----3---3----3------3------3-------3--1----1------1----1---1-------0--
G-0-----0----2-2--------2------2---------------0--0------0---------------------
D-2-----2----0---------------------------------2-------------------------------
A-3-----3----------------------------------------------------------------------
E------------------------------------------------------------------------------
alone is anybody home
 
   A#                                A
E--1-------1------1------1-------1---0-----0--------0------0-1-3-1-0-
B--3-----3------3------3-------3-----2---2--------2----2-3-----------
G--3---3------3------3-------3-------2-2--------2--------------------
D--3---------------------------------2-------------------------------
A--------------------------------------------------------------------
E--------------------------------------------------------------------

[chorus 2 ending + solo]

  c                      Dm                       
E-0-----0----------------------------10----------------------------
B-1-----1---------------------10-----------------------------------
G-0-----0---------------12^14----^14-----12-10----10---10-12-10-12-
D-2-----2--------------------------------------12-10---10-10-10-10-
A-3-----3----------------------------------------------------------
E------------------------------------------------------------------
  alone   is anybody home

    c                                               A#
E--------------------------------------------------------10-------
B---------------------------------------------------13^15--^13-10-
G-7-9--9-7-9-7----12^14-^14^14^14^14-^12-10----10-----------------
D-7-7---------10----------------------------12--------------------
A-----------------------------------------------------------------
E-----------------------------------------------------------------

                                A
E----------------------------------------------------------10--10--10-
B------10-------------------10--------------------10--10-13--13--13---
G-12^14--^12-10-12--12-10-12-------------10--10-12--12----------------
D-------------------------------10--10-12--12-------------------------
A---------------------------------12----------------------------------
E---------------------------------------------------------------------

  Dm                    c                   
E-10-10--10--10-10--10-10--------------------------------
B-------------------------13-10--10-------------------10-
G------------------------------12--12-10-12--12-10-12----
D--------------------------------------------------------
A--------------------------------------------------------
E--------------------------------------------------------

   A#                        
E----------------------------10-10-10----------------
B-10-10-10-------------------10-10-10----------------
G-12-12-12--12--10--12--10---12-12-12--12--10--12^14-
D-10-10-10--10--10--10--10---10-10-10--10--10--------
A----------------------------------------------------
E----------------------------------------------------

  A [    mute    ]
E--------------------------------------------------------------------------
B-----------------------------------------10-10-10-10-10-10-10-10-10-10-10-
G-10-10-10-10-10-12---10-10-10-10-10-12---10-10-10-10-10-10-10-10-10-10-10-
D-10-10-10-10-10-10---10-10-10-10-10-10---10-10-10-10-10-10-10-10-10-10-10-
A--------------------------------------------------------------------------
E--------------------------------------------------------------------------

  Dm Flanger c      A#       A
E-2--------0--------1--------0--
B-3--------1--------3--------2--
G-1--------0--------3--------2--
D----------2--------3--------2--
A----------3-----------------0--
E-------------------------------

[chorus]

[intro]


Submitted By Alex Sharrocks
off www.StoneRoses.net

There are many more buzzin Stone Roses
tabs on there too.  Check it out

Please E-mail with comments to:
VietnamZombie@hotmail.com
Comments