Stone Roses - Fools Gold Chords & Tabs

 

Fools Gold Chords & Tabs

Stone Roses Chords & Tabs

Version: 3 Type: Tab 0 ratings
1 star 2 stars 3 stars 4 stars 5 stars
comments

Fools Gold Tab

----------------------------------------------------------------------------
			 Fools Gold - Stone Roses
----------------------------------------------------------------------------
Tabbed by: Mark H (Taken From Total Guitar Magazine #122)

Tuning: Standard

This Is the main riff from "Fools Gold" by the Stone Roses and is played throughout the song
[ Tab from: http://www.guitartabs.cc/tabs/s/stone_roses/fools_gold_tab_ver_3.html ]
e|--------------------------------------------------------------------------
B|--------------------------------------------------------------------------
G|--------------------------------------------------------------------------
D|--------7----------5-p-4-h-5-p-4-h-5--------------------------------------
A|------------------------------------------3-p-2-h-3-p-2-h-3---------------
E|---5----------------------------------------------------------------------

e|--------------------------------------------------------------------------
B|--------------------------------------------------------------------------
G|--------------------------------------------------------------------------
D|--------------------------------------------------------------------------
A|-3------2--2----2---------------------------------------------------------
E|-------------------3----4----5--------------------------------------------
Palm Mute .......................
Comments