Stone Roses - Elephant Stone Chords & Tabs

 

Elephant Stone Chords & Tabs

Stone Roses Chords & Tabs

Version: 2 Type: Tab 0 ratings
1 star 2 stars 3 stars 4 stars 5 stars
comments

Elephant Stone Tab

   
-------------------------------------------------------------------------------
			     Elephant Stone The Stone Roses
-------------------------------------------------------------------------------

This works well for an Acoustic version, Squire also uses this - or something
along these lines! - (except the Intro which comes from the 12” version) in the
Blackpool Live version where he switches between playing this with a clean sound
and playing the chords with a load of wah wah on, hope you get the jist of it!
It’s played with a Capo on the 1st Fret on the record but its not essential.

Tabbed by:Andy

Tuning:Standard

Chords: G C D



  Intro:
e|------------3---------------------|
B|------0---1---3-1p0-1-0-----------|
G|----0---0---------------2-0-------|
D|----------------------------------| X2
A|--------------3-------------------|
E|--3-----------------------3-------|

e|-------------------------------0--------2-----3-----2-----0--------|
B|----3--------3--------3----------3--------3-----3-----3-----3------¦
G|------0--------0--------0----------0--------2-----2-----2-----2-0--|
D|--------0--------0--------0-----------0----------------------------|
A|-----------0--------2--------3-------------------------------------|
E|--3----------------------------------------------------------------|

[ Tab from: http://www.guitartabs.cc/tabs/s/stone_roses/elephant_stone_tab_ver_2.html ]
  Verses:
e|----3-----0-------0-----------------3-----0-------0----------------|
B|------3-----3-------3-----------------3-----3-------3--------------|
G|--------0-----0-------0---------0-------0-----0-------0------------|
D|----------0-----------------0h2-----------0-------------0----------|
A|----------------3--------3----------------------3---------3-2-0----|
E|--3-------------------------------3-----------------------------3--|

e|------------------0--------2-----3-----2-----0---------------------|
B|---3-----3----------3--------3-----3-----3-----3-------------------|
G|-----0-----0----------0--------2-----2-----2-----2-0---------------|
D|-------0-----0-----------0-----------------------------------------|
A|---------2------3--------------------------------------------------|
E|--0----------------------------------------------------------------|


  Solo:
e|-------------------------------------------------------------------|
B|-------------------------------------------------------------------|
G|--0-0-----2---2-0-2-4---4-2-4-5-4-5-4-5-4-2-0----------------------|
D|------4-5----------------------------------------------------------|
A|-------------------------------------------------------------------|
E|-------------------------------------------------------------------|


  Outro:
    C             D             G
e|--x-x-x---------2-2-2---------3------------------------------------|
B|--3-3-3---------3-3-3---------3------------------------------------|
G|--0-0-0---------2-2-2---------0------------------------------------|
D|--2-2-2---------0-0-0-0-------0------------------------------------|
A|--3-3-3-2-3-2-0-0-0-0---3-2-0-2------------------------------------|
E|--x-x-x---------x-x-x---------3------------------------------------|



Seems like theres…………………………


C                   D          G      D  C          G     D  C      
Seems like theres a hole in my dreams      or so it seems
      
            G  D  C
yet nothing means………

    D       G
anything anymore
Comments