Stone Free - Sayang Chords & Tabs

 

Sayang Chords & Tabs

Stone Free Chords & Tabs

Version: 1 Type: Tab 0 ratings
1 star 2 stars 3 stars 4 stars 5 stars
comments

Sayang Tab

   


Song Title : Sayang
    Artist : Stone Free
     Album : Hibiscus 
      Type : Complete Tab      
 Tabbed By : Ralph De Guzman
	     Colegio San Agustin - Southwoods
             14 yrs. old
             3rd Year Student
    E-Mail : jnxxx777@yahoo.com
  Cell No. : 09202412886


Fave Song Ko To Ng StoneFree...
Sana Magustuhan Nyo Ung Tab Ko!!!


Chords Used:

    E    EM7    B  Fdim9th  F    F7     A    A5    D5   Ddim5   D    Csus Cdim5  E(over G#)
d#|--0--|--0--|--0--|--0--|--1--|--0--|--0--|--0--|--5--|--4--|--0--|--0--|--0--|--0--|
A#|--0--|--0--|--0--|--0--|--1--|--3--|--0--|--0--|--3--|--3--|--3--|--3--|--0--|--0--|
F#|--1--|--1--|--4--|--2--|--2--|--2--|--2--|--1--|--2--|--2--|--2--|--0--|--0--|--1--|
C#|--2--|--1--|--4--|--3--|--3--|--0--|--2--|--2--|--0--|--0--|--0--|--0--|--0--|--2--|
G#|--2--|--2--|--2--|--3--|--3--|--3--|--0--|--0--|--0--|--0--|--0--|--3--|--3--|--2--|
D#|--0--|--0--|--0--|--1--|--1--|--1--|--0--|--0--|--x--|--x--|--x--|--x--|--x--|--4--|


Intro:

E - EM7 - B (2x)

Verse:

E             E(over G#)
Tulay Ng Salitang

       Fdim9th - F - F7 - Fdim9th
Di Matawid

E         E(Over G#)
Panghihinayang

            Fdim9th - F - F7 - Fdim9th
Sa Di Mapahiwatig



Chorus:

A      A5          A
Kung Lilisan Ka Na

       A5             D5
Sinong Papalit Sa iyo?

Ddim5  D   (Solo 1)    D5
  Sa - yang...

Ddim5  D 
  Sa - yang... Sayang...


Do This On The Chorus...(pakinggan Nyo Na Lang Sa CD Ung Timing)


Solo 1:
(Distorded)
d#|--------------|
A#|--------------|
F#|--9-9---------|
C#|----9h11-7----|
G#|--------------|
D#|--------------|



Repeat Intro


Verse 2:

E           E(Over G#)
Pagisipan Muna
                (solo 2)
           Fdim9th - F - F7 - Fdim9th 
Baka MapagUsapan Pa...
[ Tab from: http://www.guitartabs.cc/tabs/s/stone_free/sayang_tab.html ]
E        E(Over G#)
Sabi Mo Nga
                     (Solo 3)
                   Fdim9th - F - F7 - Fdim9th
Dumarating Lang To Minsan Ngayon Umaayaw Ka Na...


Solo 2:(Classical Guitar)
d#|-------------------------------------------------------|
A#|-------------------------------------------------------|
F#|---4-5-7-4-5----4-5-7-9-7-5-7-5-4-5-4-2-4-2-1-2-1------|
C#|-------------------------------------------------0h2---|
G#|-------------------------------------------------------|
D#|-------------------------------------------------------|

Solo 3:(Classical Guitar)
d#|------4-5-7--7-5-7-8-7-8-10-8-10-8-10-12---------------|
A#|---5/7-------------------------------------------------|
F#|-------------------------------------------------------|
C#|-------------------------------------------------------|
G#|-------------------------------------------------------|
D#|-------------------------------------------------------|



Chorus:

A      A5         A
Kung Lilipas Ka Na

       A5             D5
Sinong Papalit Sa iyo

Ddim5 D (solo 4) D5
 Sa - Yang...

Ddim5 D
Sa - Yang... Sayang...


Solo 4:(Distorted)
d#|-------------|
A#|-------------|
F#|--9----9-----|
C#|--9h11-9-7-7-|
G#|-------------|
D#|-------------|

Bridge 1:

Csus              Cdim5
Hanggang Bukas Na Lang...

Csus              Cdim5
Hanggang Bukas Na Lang...


Ang Langit...


Adlib:

Solo:(distorted)

E------------------------------------------------------------|
B------------------------------------------------------------|
G-/5-5-5s8-8-8s12-12-8-3-3--5s8-8s12-13-12-13-13-12-12-8-8---| /= slide to
D------------------------------------------------------------| s= slide to
A------------------------------------------------------------|
E------------------------------------------------------------|

E---------------------------------|
B---------------------------------|
G-2-3-5-2-2---/12-15-15--13-13-13-|
D---------------------------------|
A---------------------------------|
E---------------------------------|


ASTIG!!!!!
Text or e-mail Me For Questions and corrections...
Geh...
eNjOy!!!
Comments