Stinkaholic - Cover Your Eyes Chords & Tabs

 

Cover Your Eyes Chords & Tabs

Stinkaholic Chords & Tabs

Version: 1 Type: Tab 0 ratings
1 star 2 stars 3 stars 4 stars 5 stars
comments

Cover Your Eyes Tab

   
-------------------------------------------------------------------------------
			     Cover Your Eyes - Stinkaholic doughmainrecords.com    
-------------------------------------------------------------------------------
Tabbed by: chewy1366


Tuning: EADGBe

Intro                                      x4   fourth time only
e|-3-33-3----4-444-44----6-66-6----6-666-66---|------6---------------------|
B|-4-44-4----4-444-44----8-88-8----6-666-66---|-----6----------------------|
G|-5-55-5----5-555-55----8-88-8----7-777-77---|----7-----------------------|
D|-5-55-5----6-666-66----8-88-8----8-888-88---|---8------------------------|
A|-3-33-3----6-666-66----6-66-6----8-888-88---|--8-------------------------|
E|-----------4-444-44--------------6-666-66---|-6--------------------------|
[ Tab from: http://www.guitartabs.cc/tabs/s/stinkaholic/cover_your_eyes_tab.html ]
riff 1                                                                   x4 
e|-------------------------------------------------------------------------|
B|-----6fb------4fb--------------------------------------------------------|
G|-55----------------8-88-8------------------------------------------------|
D|-55-------66-------8-88-8--8-888-88--------------------------------------|
A|-33-------66-------6-66-6--8-888-88--------------------------------------|
E|----------44---------------6-666-66--------------------------------------|

riff 2    x9         x2      x5  fill
e|----------|----------|-------|-------------------------------------------|
B|-8--------|--11------|-8-----|-11-9-8-9--8h9p9---------------------------|
G|--8-------|----8-----|--8----|-----------------8-------------------------|
D|---10-----|-----10---|---10--|-------------------10----------------------|
A|----------|----------|-------|-------------------------------------------|
E|----------|----------|-------|-------------------------------------------|

verse                                                                    x2
e|-------------------------------------------------------------------------|
B|-------------------------------------------------------------------------|
G|-------------------------------------------------------------------------|
D|-5-55-5-5-55-5-55-----6-66-6-6-66-6-66---88-88---------------------------|
A|-3-33-3-3-33-3-33-----4-44-4-4-44-4-44---66-88---------------------------|
E|-3-33-3-3-33-3-33-----4-44-4-4-44-4-44---66-66---------------------------|




| /  slide up
| \  slide down
| h  hammer-on
| p  pull-off
| ~  vibrato
| +  harmonic
| x  Mute note
===============================================================================
Comments