Sting - Shape Of My Heart Chords & Tabs

 

Shape Of My Heart Chords & Tabs

Sting Chords & Tabs

Version: 6 Type: Tab 0 ratings
1 star 2 stars 3 stars 4 stars 5 stars
comments

Shape Of My Heart Tab

This is similar to the version orginally posted at OLGA by Gehan Cheung with some minor
changes. I have fairly small hands and I needed to get rid of the 9-14 and (yikes!) 7-13
spans. I'm reasonably certain Dominic Miller plays it this way.


()= ghost note[not picked]    + = count
m = slight palm mute          X = rest

Intro:
e-----------------------------|--------------------|
B-10-(10)----10-9--(9)-----9--|-7-(7)---7---7------|
G------------------(6)--6-----|-----------------10-|
D----(11)-11------------------|---(9)-9-------9----|
A-9--(9)--------7--(7)--------|--------------------|
E-----------------------------|-7-(7)-------7---9--|
                                                    
|-----------------------------|--------------------|
|-10-(10)----10-9--(9)-----9--|-7-(7)---7---7------|
|------------------(6)--6-----|-----------------10-|
|----(12)-12------------------|---(9)-9-------9----|
|-9--(9)--------7---(7)-------|--------------------|
|-----------------------------|-7-(7)-------7---9--|
                                                                    
|------------------|------------------|------4-(4)-|-2-(2)-(2)-(2)-|
|----------10------|-0--(0)-----6-(6)-|-7-7--7-(7)-|-2-(2)-(2)-(2)-|
|-----11------11---|-2--h2------6-(6)-|-7-7--4-(4)-|-2-(2)-(2)-(2)-|
|---9----9-------9-|-2--(2)---6-------|------4-(4)-|-4-(4)-(4)-(4)-|
|------------------|-0--(0)-4---------|-5----4-(4)-|-4-(4)-(4)-(4)-|
|-7----------------|------------------|------------|-2-(2)-(2)-(2)-|

1st Verse(00:23):
|-----------------------------|--------------------|
|-10-(10)----10-9--(9)-----9--|-7-(7)---7---7------|
|------------------(6)--6-----|-----------------10-|
|----(11)-11------------------|---(9)-9-------9----|
|-9--(9)--------7--(7)--------|--------------------|
|-----------------------------|-7-(7)-------7---9--|

|-----------------------------|--------------------|
|-10-(10)----10---------------|-7-(7)---7---7------|
|---------------13-(13)----13-|-----------------10-|
|----(12)-12-------(11)-11----|---(9)-9-------9----|
|-9--(9)----------------------|--------------------|
|---------------12-(12)-------|-7-(7)-------7---9--| 
 
|-----------------------|
|----------10-(10)-(10)-| 
|-----11----------------| 
|---9----9--------------|
|-----------------------| 
|-7---------------------| 
  
|------------------|------4-(4)-|-2-(2)-(2)-(2)-|
|-0--(0)-----6-(6)-|-7-7--7-(7)-|-2-(2)-(2)-(2)-|
|-2--h2------6-(6)-|-7-7--4-(4)-|-2-(2)-(2)-(2)-|
|-2--(2)---6-------|------4-(4)-|-4-(4)-(4)-(4)-|
|-0--(0)-4---------|-5----4-(4)-|-4-(4)-(4)-(4)-|
|------------------|------------|-2-(2)-(2)-(2)-|
[ Tab from: http://www.guitartabs.cc/tabs/s/sting/shape_of_my_heart_tab_ver_6.html ]
        
                                                
                                     |-2-2-2-2-|
                                     |-2-2-2-2-|
                                     |-2-2-2-2-|
                                     |-4-4-2-2-|
                                     |-4-4-4-4-|
                                     |-2-2-2-2-|
                                     
        That's not the shape..........
            
      |----------------4-4-|-4-4-4-4-|
      |-7--------7-----7-7-|-7-7-7-7-|
      |-7--------7-----4-4-|-4-4-4-4-|
      |----------------4-4-|-4-4-4-4-|
      |-5--------------4-4-|-4-4-4-4-|
      |--------------------|---------| 
                
        The shape of my  heart.............
            +      +
      |-----X------X--||-------------------|----------------|2x  
      |-----X------X--||-5-5----5-4-4----4-|-2-2----2-2-----|    
      |-----X------X--||-----------(1)-1---|--------------5-|    
      |-----X------X--||--(6)-6------------|--(4)-4-----4---|    
      |-----X------X--||-4-4------2-2------|----------------|    
      |-----X------X--||-------------------|-2-2------2---4-|    
                                                              
      |---------0-----|---------------|                    
      |-----2-----2---|---------------|                      
      |---------------|-1---1-----5---|                      
      |---4---4-----4-|-2-------4---4-|                     
      |---------------|-2------6------|                     
      |-2-------------|-0-0---4-------|                      
     
                                      m 
      |-----4-4-|---------|-----4-4-|-0-(0)-(0)-(0)-|
      |-----5-5-|-5-5-5-5-|-----5-5-|-0-(0)-(0)-(0)-|
      |-6-6-6-6-|-6-6-4-4-|-6-6-6-6-|-2-(2)-(2)-(2)-|
      |-7-7-6---|-6-6-6-6-|-7-7-6---|-4-(4)-(4)-(4)-|
      |-----6---|-4-4-4-4-|-----6---|---------------|
      |-5-------|---------|-5-------|-2-(2)-(2)-(2)-|
 
 
   
            
           |---------------4------4-|--2-2-2-2-|2x  
           |-7-------7-----7------7-|--2-2-2-2-|   
           |-7-------7-----4------4-|--2-2-2-2-|    
           |---------------4------4-|--4-4-2-2-|    
           |-5-------------4------4-|--4-4-4-4-|    
           |------------------------|--2-2-2-2-|   


            That's not the shape.........   
            
           |---------------4-4-|-4-4-4-4-|
           |-7-------7-----7-7-|-7-7-7-7-|
           |-7-------7-----4-4-|-4-4-4-4-|
           |---------------4-4-|-4-4-4-4-|
           |-5-------------4-4-|-4-4-4-4-|
           |-------------------|---------|
           
           
       The shape of my heart.
           +      +
       |---X------X-|------------------------------|--------------------|
       |---X------X-|--10-(10)----10-9--(9)-----9--|-7-(7)---7---7------|
       |---X------X-|-------------------(6)--6-----|-----------------10-|
       |---X------X-|-----(11)-11------------------|---(9)-9-------9----|
       |---X------X-|--9--(9)--------7--(7)--------|--------------------|
       |---X------X-|------------------------------|-7-(7)-------7---9--|

      
       |-----------------------------|---------------|-2-2-----14-| 
       |-10-(10)----10-9--(9)-----9--|-7-----7-7-----|-2-2---14---|
       |------------------(6)--6-----|---7-----7--10-|-2-2-14-----| 
       |----(12)-12------------------|-----9---------|-4-4--------| 
       |-9--(9)--------7--(7)--------|---------------|-4-4--------| 
       |-----------------------------|-7-------7--9--|-2-2--------|
Comments