Sting - Shape Of My Heart Chords & Tabs

 

Shape Of My Heart Chords & Tabs

Sting Chords & Tabs

Version: 5 Type: Tab 0 ratings
1 star 2 stars 3 stars 4 stars 5 stars
comments

Shape Of My Heart Tab

this is the first song i tab so it may sound a bit weird!!

STING - Shape of My Heart

e--5------5---4----4---2-----2--2-1|-5----4---4---4---2----2-2-1|
b------2----------2--------0----0-0|-----3-------2-------0---0-0|
g----------------------------------|----------------------------|
d----4------2---2----0---0---------|---4----2---2---0---0-------|
a-------------------------------4-4|-------------------------4-4|
e----------------------------------|----------------------------|
[ Tab from: http://www.guitartabs.cc/tabs/s/sting/shape_of_my_heart_tab_ver_5.html ]
e----2---5-2-------0-----------2--2|--0----0--------------------|
b---0--0----0------0---6---7-7-3--2|---------4---4--2----2-2-1--|
g------------------------------4--2|------1-----1---------------|
d--0------------------6----7-7-4--4|-------------------4--------|
a-------------4-2-0--4-----5---2--4|----4------2-----0----------|
e---------------------------------3|-----------------------4-4--|

e--0----0--------------------------|--------0-------------------------|
b---------4----4--2----2--2-1------|-----2---2-----------0------------|
g------2-----1---------------------|---------------------1------5-----|
d--------------------4-------------|---4--4----4----------------6-----|
a----4------2-------0--------------|--0-----------------------6---6---|
e-------------------------4-4------|-------------4--2--0--0--4------5-|

e--------2--4----------------------|
b--5--5--2--5----------------------|
g--6--6--2--6----------------------|
d--7-----4--6----------------------|
a--------4--4----------------------|
e--------2-------------------------|


Any changes or sugestions please mail me to Matah_Hari@hotmail.com
Comments