Sting - Saint Agnes And The Burning Train Chords & Tabs

 

Saint Agnes And The Burning Train Chords & Tabs

Sting Chords & Tabs

Version: 1 Type: Tab 0 ratings
1 star 2 stars 3 stars 4 stars 5 stars
comments

Saint Agnes And The Burning Train Tab

   
 Sting - Saint Agnes and a Burning Train 


 Hi! Here are tabs just for rhythm guitar. Lead guitar isn't very tough.
 Timing is 3/4. Any corrections send to zone@virginstudent.com


      
    Em                        D7                         D                          
    |   |   |   |   |   |     |   |   |   |   |   |	|   |   |   |   |   |
e:|-------------------------|-------------------------|-------------------------|
B:|-------------------------|-------------------------|-------------------------|
G:|---0---0---0---0---0---0-|---2---2---2---2---2---2-|-------------------------|
D:|-2-----------2-----------|-4-----------4-----------|---4---4---4---4---4---4-|
A:|---2---2---2---2---2---2-|---3---3---3---3---3---3-|-5-----------5-----------|
E:|-------------------------|-------------------------|---5---5---5---5---5---5-|


    D7          H7            Em                        D7
    |   |   |   |   |   |     |   |   |   |   |   |     |   |   |   |   |   |               	
e:|-------------------------|-------------------------|-------------------------|
B:|-------------------------|-------------------------|-------------------------|
G:|-------------------------|---0---0---0---0---0---0-|---2---2---2---2---2---2-|
D:|---4---4---4---4---4---4-|-2-----------2-----------|-4-----------4-----------|
A:|-3-----------2-----------|---2---2---2---2---2---2-|---3---3---3---3---3---3-|
E:|---5---5---5---5---5---5-|-------------------------|-------------------------|


    D                         D7          H7            Am6     
    |   |   |   |   |   |     |   |   |   |   |   |     |   |   |   |   |   |    	
e:|-------------------------|-------------------------|-------------------------|
B:|-------------------------|-------------------------|-------------------------|
G:|-------------------------|-------------------------|-------------------------|
D:|---4---4---4---4---4---4-|---4---4---4---4---4---4-|---4---4---4---4---4---4-|
A:|-5-----------5-----------|-3-----------2-----------|-0-----------0-----------|
E:|---5---5---5---5---5---5-|---5---5---5---5---5---5-|---5---5---5---5---5---5-|


    H7          Em            D           D7            H7           
    |   |   |   |   |   |     |   |   |   |   |   |     |   |   |   |   |   |     	
e:|-------------------------|-------------------------|-------------------------|
B:|-------------------------|-------------------------|-------------------------|
G:|-------------------------|-------------------------|-------------------------|
D:|---4---4---4---5---5---5-|---4---4---4---4---4---4-|---4---4---4---4---4---4-|
A:|-6-----------7-----------|-5-----------3-----------|-2-----------2-----------|
E:|---5---5---5---7---7---7-|---5---5---5---5---5---5-|---5---5---5---5---5---5-|


    Am6                       H7          Em            D           D7   
    |   |   |   |   |   |     |   |   |   |   |   |     |   |   |   |   |   |    	
e:|-------------------------|-------------------------|-------------------------|
B:|-------------------------|-------------------------|-------------------------|
G:|-------------------------|-------------------------|-------------------------|
D:|---4---4---4---4---4---4-|---4---4---4---5---5---5-|---4---4---4---4---4---4-|
A:|-0-----------0-----------|-6-----------7-----------|-5-----------3-----------|
E:|---5---5---5---5---5---5-|---5---5---5---7---7---7-|---5---5---5---5---5---5-|


    H           C             H           C 
    |   |   |   |   |   |     |   |   |   |   |   |    	
e:|-------------------------|-------------------------|
B:|-------------------------|-------------------------|
G:|-------------------------|-------------------------|
D:|---1---1---1---2---2---2-|---1---1---1---2---2---2-|
A:|-2-----------3-----------|-2-----------3-----------|
E:|---2---2---2---3---3---3-|---2---2---2---3---3---3-|

     
    Em                        D7                        D                          
    |   |   |   |   |   |     |   |   |   |   |   |     |   |   |   |   |   |
e:|-------------------------|-------------------------|-------------------------|
B:|-------------------------|-------------------------|-------------------------|
G:|---0---0---0---0---0---0-|---2---2---2---2---2---2-|-------------------------|
D:|-2-----------2-----------|-4-----------4-----------|---4---4---4---4---4---4-|
A:|---2---2---2---2---2---2-|---3---3---3---3---3---3-|-5-----------5-----------|
E:|-------------------------|-------------------------|---5---5---5---5---5---5-|


    D7          H7           Em                         D7  
    |   |   |   |   |   |     |   |   |   |   |   |     |   |   |   |   |   |               	
e:|-------------------------|-------------------------|-------------------------|
B:|-------------------------|-------------------------|-------------------------|
G:|-------------------------|---0---0---0---0---0---0-|---2---2---2---2---2---2-|
D:|---4---4---4---4---4---4-|-2-----------2-----------|-4-----------4-----------|
A:|-3-----------2-----------|---2---2---2---2---2---2-|---3---3---3---3---3---3-|
E:|---5---5---5---5---5---5-|-------------------------|-------------------------|

[ Tab from: http://www.guitartabs.cc/tabs/s/sting/saint_agnes_and_the_burning_train_tab.html ]
    D                         D7          H7            Am6            
    |   |   |   |   |   |     |   |   |   |   |   |     |   |   |   |   |   |    	
e:|-------------------------|-------------------------|-------------------------|
B:|-------------------------|-------------------------|-------------------------|
G:|-------------------------|-------------------------|-------------------------|
D:|---4---4---4---4---4---4-|---4---4---4---4---4---4-|---4---4---4---4---4---4-|
A:|-5-----------5-----------|-3-----------2-----------|-0-----------0-----------|
E:|---5---5---5---5---5---5-|---5---5---5---5---5---5-|---5---5---5---5---5---5-|


    H7          Em            D           D7            H7 
    |   |   |   |   |   |     |   |   |   |   |   |     |   |   |   |   |   |     	
e:|-------------------------|-------------------------|-------------------------|
B:|-------------------------|-------------------------|-------------------------|
G:|-------------------------|-------------------------|-------------------------|
D:|---4---4---4---5---5---5-|---4---4---4---4---4---4-|---4---4---4---4---4---4-|
A:|-6-----------7-----------|-5-----------3-----------|-2-----------2-----------|
E:|---5---5---5---7---7---7-|---5---5---5---5---5---5-|---5---5---5---5---5---5-|

	
    Am6                       H7          Em            D           D7
    |   |   |   |   |   |     |   |   |   |   |   |     |   |   |   |   |   |    	
e:|-------------------------|-------------------------|-------------------------|
B:|-------------------------|-------------------------|-------------------------|
G:|-------------------------|-------------------------|-------------------------|
D:|---4---4---4---4---4---4-|---4---4---4---5---5---5-|---4---4---4---4---4---4-|
A:|-0-----------0-----------|-6-----------7-----------|-5-----------3-----------|
E:|---5---5---5---5---5---5-|---5---5---5---7---7---7-|---5---5---5---5---5---5-|


    H           D7/9/6        H           D7/9/6        H       C   H       C        
    |   |   |   |   |   |     |   |   |   |   |   |     |   |   |   |   |   |   	
e:|-------------------------|-------------------------|-------------------------|
B:|---------------------0---|---------------------0---|-------------------------|
G:|-------------------2--2--|-------------------2--2--|-------------------------|
D:|---1---1---1---2-4-------|---1---1---1---2-4-------|---1---1---2---1---1---2-|
A:|-2-----------3---------3-|-2-----------3---------3-|-2-------3---2-------3---|
E:|---2---2---2-------------|---2---2---2-------------|---2---2---3---2---2---3-|


    H
    |   |   |   |   |  	|            
e:|-------------------------|
B:|-------------------------|
G:|-------------------------|
D:|---1---1---2---1---------|
A:|-2-------3---2-----0-----|
E:|---2---2---3---2-----3-2-|


    Em                        D7          Am            Am              Em  H7                     
    |   |   |   |   |   |     |   |   |   |   |   |     |   |   |   |   |   |
e:|-------------------------|---5---5---5---8---8---8-|---8---8---8-----3---2---|
B:|-------------------------|-7-----------10----------|-10--------------5---4---|
G:|---0---0---0---0---0---0-|---5---5---5---9---9---9-|---9---9---9-----4---2---|
D:|-2-----------2-----------|-------------------------|-----------------2---4---|
A:|---2---2---2---2---2---2-|-------------------------|-------------------------|
E:|-------------------------|-------------------------|-------------------------|	


    Em 
    |   |   |   |     	
e:|---------------|
B:|---------------|
G:|---0---0---0---|
D:|-2-----------2-|
A:|---2---2---2---|
E:|---------------|


   Em                         D7                        D                          
   |    |   |   |   |   |     |   |   |   |   |   |	|   |   |   |   |   |
e:|-------------------------|-------------------------|-------------------------|
B:|-------------------------|-------------------------|-------------------------|
G:|---0---0---0---0---0---0-|---2---2---2---2---2---2-|-------------------------|
D:|-2-----------2-----------|-4-----------4-----------|---4---4---4---4---4---4-|
A:|---2---2---2---2---2---2-|---3---3---3---3---3---3-|-5-----------5-----------|
E:|-------------------------|-------------------------|---5---5---5---5---5---5-|


   D7          H7             Em                  Am    Em                  Am     Em
    |   |   |   |   |   |     |   |   |   |   |   |     |   |   |   |   |   |                    	
e:|-------------------------|-------------------------|-------------------------|
B:|-------------------------|-------------------------|-------------------------|
G:|-------------------------|---0---0---0---0---0---2-|---0---0---0---0---0---2-|
D:|---4---4---4---4---4---4-|-2-----------2-------2---|-2-----------2-------2---|
A:|-3-----------2-----------|---2---2---2---2---2---3-|---2---2---2---0---0---3-|
E:|---5---5---5---5---5---5-|-------------------------|-------------------------|


    Em                  Am    Em      Am  Em      Am     Em
    |   |   |   |   |   |     |   |   |   |   |   |                    	
e:|-------------------------|-------------------------|
B:|-------------------------|-------------------------|
G:|---0---0---0---0---0---2-|---0---0---2---0---0---2-|
D:|-2-----------2-------2---|-2-------2---2-------2---|
A:|---2---2---2---2---2---3-|---2---2---3---0---0---3-|
E:|-------------------------|-------------------------|





  
Comments