Sting - Russians Chords & Tabs

 

Russians Chords & Tabs

Sting Chords & Tabs

Version: 1 Type: Bass Tab 0 ratings
1 star 2 stars 3 stars 4 stars 5 stars
comments

Russians Bass Tab

   
 Q=58
 4/4	

 Intro	     Verse
  W            H    H      H    H
G|----------||------------|-----------|-----------|-----------|
D|----------||o-----------|-----------|-----------|-----------|
A|----------||o-3----1----|------1----|-----------|-----------|
E|-3--------||------------|-4---------|-1----3----|-4----6----|
                                       H    H      H    H


  H    H      H    H      H    H      H    H
G|-----------|-----------|-----------|-----------|
D|-----------|-----------|-----------|------5----|
A|-3----1----|-----------|-2----3----|-----------|
E|-----------|-4----6----|-----------|-3---------|

[ Tab from: http://www.guitartabs.cc/tabs/s/sting/russians_btab.html ]
  H    H      H    H      H    H      H    H
G|-----------|-----------|-----------|-----------|
D|-----------|-----------|-----------|------5----|
A|-6----6----|-----------|-3----3----|-----------|
E|-----------|-7----7----|-----------|-3---------|


                        1.
  H    H    H    H      H    H    H    H
G|---------------------|----------------------||
D|---------------------|---------------------o||
A|-3----1--------------|------1----3----3----o||
E|-----------4----6----|-1--------------------||


  2.			  
  H    H      H    H        
G|-----------|-----------|
D|-----------|-----------|
A|-----------|-----------|
E|-1----3----|-4----6----|



Bridge

   H    H      H    H
G|------------|-----------|
D|o-----------|-----------|
A|o-3----3----|-3----3----|
E|------------|-----------|


  H    H      H    H        H    H      H    H     6x
G|-----------|-----------||------------|------------||
D|-----------|-----------||o-----------|-----------o||
A|-3----3----|-3----3----||o-3---------|-6----8----o||
E|-----------|-----------||-------4----|------------||
Comments