Sting - Misc Chords & Tabs

 

Misc Chords & Tabs

Sting Chords & Tabs

Version: 1 Type: Tab 0 ratings
1 star 2 stars 3 stars 4 stars 5 stars
comments

Misc Tab

   
#----------------------------------PLEASE NOTE---------------------------------#
#This file is the author's own work and represents their interpretation of the #
#song. You may only use this file for private study, scholarship, or research. #
#------------------------------------------------------------------------------##

Date: Tue, 15 Mar 94 15:43:09 GMT
Message-Id: 
To: jamesb@nevada.edu
Subject: TAB: Mad About You  -  Sting

>From sd021@diana.di.fc.ul.pt (SDII-Grupo_sd021)
Newsgroups: alt.guitar.tab
Subject: TAB: Sting: Mad About You
Date: 8 Mar 1994 04:00:28 -0600

Mad About You  -  Sting  from "The Soul Cages" album
                  Transcription: Luis Ferreira



  I'd like to thank Luke (lhaley@reed.edu) for his posting. I tried to find
out the rest of the chords and this is what I came up with...
  The lyrics are correct, btw...
  If you have any corrections to this, PLEASE let me know (or post them).


Intro:

e--------0-|------1-|-------0-|------0-|--------|----------|--------|------|--
B----------|--------|----3----|--------|----1-3-|--3---3---|----3---|----3-|--
G--2---2---|--2-2---|--2------|--2-2---|--2-----|----2---2-|--5---4-|--5---|--
D----------|--------|---------|--------|--------|----------|--------|------|--
A----------|--------|---------|--------|--------|----------|--------|------|--
E----------|--------|---------|--------|--------|----------|--------|------|--



Chords used:

Am     002210
Am/C   032210
Fmaj7  033210  ( but you might prefer to play it as 132211 )
Eaug   132111
E      022100
Dm7    x00211
Adim7  x01212
Am/G   302210  ( or should it be G6 320000 ? figure it out! :) )
F      133211
Cadd9  032030
E7aug  032130
Asus4  002230
A#     113331
C/E    032010
E7     020100




------------------------------------------------------------------------------
|                          |  "You see a city in the desert lies             |
|       Luis Ferreira      |   The vanity of an ancient king                 |
|                          |   But the city lies on broken pieces            |
|   sd021@diana.fc.ul.pt   |   Where the wind howls and the vultures sing"   |
|                          |           Sting  -  The Soul Cages              |
------------------------------------------------------------------------------


**************************************************************************************************************************************
**************************************************************************************************************************************

{title:Moon Over Bourbon Street}
{st:Sting}


CHORDS
 
  F#m7-5         B7         C#dim           F#7
 
   eadgbe       eadgbe        eadgbe        eadgbe
   ------(1)    ----0-        ------(1)     ------(1)
   1-----(2)    --1---(1)     ---1-1(2)     111111(2)
   ------(3)    -2-3-4(2)     --2-3-(3)     ---2--(3)
   --2---(4)    ------(3)     -4----(4)     -3----(4)
   ---333(5)
 

    In the above chords, if you are having difficulty, in the F#m7-5 drop the
 F# bass note and use the open A string. The C#dim you can also drop C# bass
 note. The Em and C are just regular "open" position chords.
    The song appears on the Sting album "dream of the blue turtles". If you
 get the song try working out the bass line and play it along with the chords.
    
                                       Have Fun !
 
 Derek Barlas            Derek.Barlas@Software.Mitel.COM
 Mitel Corporation       Tel (613)592-2122 X2749

 Kanata,Ontario


**************************************************************************************************************************************
88888888888888888888888888888888888888888888888888888888888888888888888888888888888888888888888888888888888888888888888888888888888888
**************************************************************************************************************************************


Date: Wed, 1, Apr 1998 
To: guitar@olga.net
From: David Alpi 
Subject: Tablature(guitar): MUOIO PER TE (STING)

MUOIO PER TE - STING
(Music by Sting, Words by Zucchero "Sugar" Fornaciari)
>From the album "The Soul Cages"

NOTE: This song is the italian version of "Mad About You",
      written by Sting and included in the original version
      of the album "The Soul Cages". So: same music, same
      chords, same everything. Only the text changes.
[ Tab from: http://www.guitartabs.cc/tabs/s/sting/misc_tab.html ]
MUOIO PER TE (Sting)

Intro:

e--------0-|------1-|-------0-|------0-|--
B----------|--------|----3----|--------|--
G--2---2---|--2-2---|--2------|--2-2---|--
D----------|--------|---------|--------|--
A----------|--------|---------|--------|--
E----------|--------|---------|--------|--

e---------|----------|--------|------|--
B-----1-3-|--3---3---|----3---|----3-|--
G---2-----|----2---2-|--5---4-|--5---|--
D---------|----------|--------|------|--
A---------|----------|--------|------|--
E---------|----------|--------|------|--


Chords used:

Am     002210
Am/C   032210
Fmaj7  033210  ( but you might prefer to play it as 132211 )
Eaug   132111
E      022100
Dm7    x00211
Adim7  x01212
Am/G   302210
F      133211
Cadd9  032030
E7aug  032130
Asus4  002230
A#     113331
C/E    032010
E7     020100

(Transcribed by David Alpi, Grosseto, Italy)
(for suggestions, comments or other, please contact me)
(email: davidal@tin.it)

*******************************************************************************************************************************
888888888888888888888888888888888888888888888888888888888888888888888888888888888888888888888888888888888888888888888888
************************************************************************************************************************


From: Zenyatta2@aol.com
Date: Tue, 27 Feb 1996 20:27:37 -0500
Subject: TAB: "This Cowboy Song" by Sting


Here's the tab for "This Cowboy Song" by Sting, off of "Fields of Gold, 
The Best of Sting 1984-1994" (A&M)... 

Main Riff:

e |---------------------------------|----------------------------|
B |-----3-----3-----3-----3---------|-----3-----3-----3-----3----|
G |---0-----0-----0-----0-----0---0-|---0-----0-----0-----0------|
D |-3-----3-----3-----3-----3---2---|-0-----0-----0-----0--------|
A |---------------------------------|----------------------------|
E |---------------------------------|----------------------------|


e |-------------------------------------|----------------------------|
B |------------3-----3-----3-----3------|-----3----3-----3-----3----3|
G |---0-------0-----0-----0-----0---0--0|---0----0-----0-----0-----0-|
D |-0-----0-----------------------------|----------------------------|
A |-----2----3-----3-----3-----3---3----|----------------------------|
E |-----------------------------------3-|-1----1-----1-----1-----1---|


______________________________________________________
Tabbed by Scott Lapatine (Zenyatta2@aol.com)
_______________________________________________________


**************************************************************************************************************************************
88888888888888888888888888888888888888888888888888888888888888888888888888888888888888888888888888888888888888888888888888888888888888
**************************************************************************************************************************************

                     A Thousand Years
                         by Sting
                   ----------------------

-----------------|--------------------|----------|--------------|
-----------------|-------------4------|----------|--------------|
--5-3-5-3-5-3-5-3|-5-3-5-3-5-6---6-5-3|-3--------|-------------3|
-----------------|--------------------|------6---|5------3-5-6--|
-----------------|--------------------|----------|--------------|
-----------------|--------------------|----------|--------------|


-----------------|--------------------|----------|-----------------------
-----------------|-------------4------|----------|-----------------------
--5-3-5-3-5-3-5-3|-5-3-5-3-5-6---6-5-3|-3-1-0-1--|-----------------------
-----------------|--------------------|----------|-----------------------
-----------------|--------------------|----------|-----------------------
-----------------|--------------------|----------|-----------------------
  *this melody played throughout verses


Fm                     Bbsus2                  Gmb5
   |-1|--|--|-1|-1|-1|    |--|-1|--|--|-1|-1|    |--|--|--|--|-1|-1|
   |--|--|--|--|--|--|    |--|--|--|--|--|--|    |--|--|--|--|--|--|
   |--|-3|-3|--|--|--|    |--|--|-3|-3|--|--|    |-3|--|-3|-3|--|--|
   |--|--|--|--|--|--|    |--|--|--|--|--|--|    |--|--|--|--|--|--|


   *This transcript is still being worked on for accuracy. Maybe someone else will
    have the time to take this framework and correct the errors(?) - JL





Comments