Sting - Its Probably Me Chords & Tabs

 

Its Probably Me Chords & Tabs

Sting Chords & Tabs

Version: 1 Type: Tab 0 ratings
1 star 2 stars 3 stars 4 stars 5 stars
comments

Its Probably Me Tab

   
#----------------------------------PLEASE NOTE---------------------------------#
#This file is the author's own work and represents their interpretation of the #
#song. You may only use this file for private study, scholarship, or research. #
#------------------------------------------------------------------------------#
From: cramby@umich.edu (Andrew Lewis)
Date: 3 Jul 1995 10:23:52 -0500
Subject: TAB: It's Probably Me- Sting/ E. Clapton

There were a few requests for Sting and E. Clapton's "It's Probably Me"...
well I have about 3/4 of it tabbed actually what I'm missing is the fade to
end, which are probably the same chords (ie.nothing new) and the rest of
the solo guitar which is not too, too hard to figure out... probably harder
to play than to figure out.  I've left out the lyrics so you'll have to
make do.  If you have any questions write me at    cramby@umich.edu
I've also got "Shape of My Heart" tabbed out but on paper not on
computer so if you really want it I could start to put it on the computer.

                IT'S    PROBABLY   ME
Intro:
    C             C              C
----------------------------------------------|
--1-1-1------1-1-1------1-1-1-----1-1-1^3-----|
--0-0-0------0-0-0------0-0-0-----0-0-0^0-----|
--2-2-2------2-2-2------2-2-2-----2-2-2^4-----|
--3-3-3------3-3-3------3-3-3-----3-3-3^5-----|
----------------------------------------------|
[ Tab from: http://www.guitartabs.cc/tabs/s/sting/its_probably_me_tab.html ]
Verse:
A:
      Em              Em              Em            Em             Am
D               Em             Em
--0-0-0-----0-0-0------0-0-0-----0-0-0-------------------------0-0-0------0-0-0----|
--5-5-5-----5-5-5------5-5-5-----5-5-5-----1-1-1----3-3-3-----5-5-5------5-5-5-----|
--4-4-4-----4-4-4------4-4-4-----4-4-4-----2-2-2----2-2-2-----4-4-4------4-4-4-----|
--2-2-2-----2-2-2------2-2-2-----2-2-2-----2-2-2----0-0-0-----2-2-2------2-2-2-----|
---------------------------------------------0-0-0---------------------------------|
-----------------------------------------------------------------------------------|
      Am            D              Em             ?             D
?                 Em                 Em
----------------------0-0-0------------------------------------0-0-0-------0---------|
-0-0----1-1-1-----3-3-3----5-5-5------5-------3-3-3-----3-3-3-----0-0-0-------5-5-5--|
--2-2-2-----2-2-2----4-4-4------4-------2-2-2-----4-4-4-----0-0-0-------4-4-4--------|
--2-2-2-----0-0-0----2-2-2------5-------0-0-0-----0-0-0-----2-2-2-------2-2-2--------|
--0-0-0--------------------------4------------------2-2-2-----2-2-2-------2----------|
2-2-----------------------------------------------------------------0-0-0------------|


Repeat  A)

Key Change
        C                  D             G                Em F#mG F#mAm
Am           D             G
---1-1-1-------------------------------------------------------------------------------|
-----------0-0-0-----3-3-3----------------------------8-------------------7-7-7--------|
----------2-2-2-----2-2-2-----4-4-4--------0--2--4--7--5------5-5-5----7-7-7----4-4-4--|
---3-3-3-----0-0-0-----5-5-5--------2--4--5--9--7------7-7-7----7-7-7----5-5-----------|
-5---------------------------5-5-5--------2--4--5--10-7------7-7-7----5-5-5----5-------|
5-5--------------------------3-3-3-----2--0--2--3--7--5------5-5-5-------------3-3-3---|


      G              C            C            G  F#mG   Em       D
?             Em            Em
------------------------------3--2--3--0--------------------------------------|
----------3-------5-5-5----7-7-7----3--2--3--0----3-3-3----3-3-3--------------|
---4-------5-5-5----7-7-7----4--2--4--0----2-2-2----4-4-4----0-0-0----0-0-0---|
---5-------5-5-5----7-7-7----5--4--5--2----0-0-0----0-0-0----2-2-2----2-2-2---|
---5-------3-3-3----5-5-5----5--4--5--2--------------2-2-2----2-2-2----2-2-2--|
---3--------------------------3--2--3--0------------------------0-0-0----0-0-0|

Solo guitar (stratocaster)

--------------------------------------------------------------------------------------|
--10 bendfull--10---8h10-8----/12-----------------------------------------------------|
-------------------------------------12-----------------------------------------------|
--------------------------------------------------14--12---------------------------12-|
---------------------------------------------------------14--12--12------12--14-------|
14p12---------------------------------------------------------------------------------|


---------------------------------------------------------------------------|
-------------------------------------------------------8p7p5--3--5--5------|
----------------------------------12---------------------------------------|
--------------12-14-12-14--14------16-14-12-14-16--------------------------|
-----------14--------------------------------------------------------------|
--15p12--------------------------------------------------------------------|



-------------------|
----3--------------|
-/4--4-4p2p0-------|   sax solo and more guitar solo      fade to end.
--------------2----|
-------------------|
-------------------|

Confusious say... one who go to bed with itchy butt... wake up with smelly
finger. 
Comments