Sting - I Miss You Kate Chords & Tabs

 

I Miss You Kate Chords & Tabs

Sting Chords & Tabs

Version: 1 Type: Tab 0 ratings
1 star 2 stars 3 stars 4 stars 5 stars
comments

I Miss You Kate Tab

#----------------------------------PLEASE NOTE---------------------------------#
#This file is the author's own work and represents their interpretation of the #
#song. You may only use this file for private study, scholarship, or research. #
#------------------------------------------------------------------------------#
#

I MISS YOU KATE - Performed by Sting live on Chicago Session 1991.

In Am (Blues Am scale).

E-----0----------0---------------------0-------------------------------------
B---0---1------0---1/3-3-3-3\1/3\1---0---1--------------0--8-8-6-5-3-5-5-----
G-2----------2---------------------2--------2-2-0-2---2----------------------
D----------------------------------------------------------------------------
A----------------------------------------------------------------------------
E----------------------------------------------------------------------------

E-----0----------------- VERY FAST ------------------------------------------
B---0---1-------/4-0--0-0-0-0-0-0-0-0-0--------------------------------------
G-2----------2---------------------------2-4--4/5\4--------------------------
D----------2----------------------------------------3/2\3/3\2----------------
A---------------------------------------------------listen to the record and
E---------------------------------------------------you'll understand how to
                                                    play this part

E-----0--------------------------0-------------------------------------------
B---0---1----8-8-6-5-3-5-5-----0---1---1/3-1---------------------------------
G-2--------2-----------------2-------2-------2-0-2---------------------------
D----------------------------------------------------------------------------
A----------------------------------------------------------------------------
E----------------------------------------------------------------------------


                                          Very fast 
E-------------------------------------5-5-5-5-5-5-5-5-5-5-5--3-5-5-8-5\3/5---
B----------------------------------------------------------------------------
G-----5-7-7/8-7-5-7-7--7-8-7-5-7-5/7-----------------------------------------
D---7------------------------------------------------------------------------
A-7--------------------------------------------------------------------------
E----------------------------------------------------------------------------
[ Tab from: http://www.guitartabs.cc/tabs/s/sting/i_miss_you_kate_tab.html ]
E-3-5-5-8-5--8---------------------5----5----7----8----5----5----5----4------
B--------------------------------1----1----3----4----1----1----4----3--------
G-----------------2-2-2/4-2-0-2----------------------------------------------
D---------------2------------------------------------------------------------
A----------------------------------------------------------------------------
E----------------------------------------------------------------------------

                                  Very fast 
E---5---5---7---5---5---5----5-5-5-5-5-5-5-5-5-5---3-5-5-8-5\3/5-------------
B-1---1---3---5---4---3------------------------------------------------------
G----------------------------------------------------------------------------
D----------------------------------------------------------------------------
A----------------------------------------------------------------------------
E----------------------------------------------------------------------------

E-3-5-5-8-5-8---------------12-13-12--12-8-8-5-7-12-8-8--3/5-3/5-------------
B----------------------------------------------------------------------------
G-----------------2-2--5-2---------------------------------------------------
D-------------1/2------------------------------------------------------------
A----------------------------------------------------------------------------
E----------------------------------------------------------------------------

E-5-7--15-15-13-12-13-10-12-12-8-5-7-10-8/10-8/10-12-8-10-8-10---------------
B----------------------------------------------------------------------------
G----------------------------------------------------------------------------
D----------------------------------------------------------------------------
A----------------------------------------------------------------------------
E----------------------------------------------------------------------------

This solo is wrong, and I don't know the second part of it. If you 
know how to play this solo, then let me know.

E-8-7-5---5-7-8-7-5-------3-5-3-5--------------------------------------------
B-------8-----------8-3-5----------------------------------------------------
G----------------------------------------------------------------------------
D----------------------------------------------------------------------------
A----------------------------------------------------------------------------
E----------------------------------------------------------------------------

E----------------------------------------------------------------------------
B---8-10---------------------------------------------------------------------
G-7------7--9/10-9-7-6--2/3-2-0---2------------------------------------------
D-------------------------------3---2-0---0-2-3--0--5--0--7--0-7-8-5---------
A----------------------------------------------------------------------------
E----------------------------------------------------------------------------

So, that's as far as I could do it. If anyone knows the rest parts, please
contact me at polony@bb.sanet.sk.

Vladimir Polony (polony@bb.sanet.sk)
Comments