Sting - Fragile Chords & Tabs

 

Fragile Chords & Tabs

Sting Chords & Tabs

Version: 4 Type: Tab

Fragile Tab

This is a correction of the tab already figuring on the site:



e------7p5--7----I-----7p5--7--7p5--7---------7p5-----------I---
B---5------------I--5---------------------------------------I---
G----------------I------------------------------------------I---
D----------------I------------------------------------------I---
A----------------I------------------------------------------I---
E----------------I------------------------------------------I---


e------7p5--7----I-----7p5--7----7p5-------I---
B---5------------I--5----------------------I---
G----------------I-------------------------I---
D----------------I-------------------------I---
A----------------I-------------------------I---
E----------------I-------------------------I---

Part II:

e------------------------I-----------------------------I---
B---12b--10-------8--8---I--12--12-----8b-----7---5-5--I---
G------------------------I-----------------------------I---
D---12b--10-------9--9---I--12--12-----9b-----7---5-5--I---
A------------------------I-------------0------0---0-0--I---
E----0---0--------0--0---I---0---0---------------------I---


e----------------------------------I--------------------I---
B---8--8--8b--7--------5--5--4--4--I--7--5--------8--8--I---
G----------------------------------I--------------------I---
D---9--9--9b--7--------5--5--4--4--I--7--5--------9--9--I---
A---0--0---------------------------I--------------------I---
E---------7---7--------7--7--7--7--I--0--0--------0--0--I---


e--12--------------------------I-----------------------------I---
B-12-12---12b--10-------8--8---I--12--12-----8b-----7---5-5--I---
G------------------------------I-----------------------------I---
D---------12b--10-------9--9---I--12--12-----9b-----7---5-5--I---
A------------------------------I-------------0------0---0-0--I---
E----------0---0--------0--0---I---0---0---------------------I---


e----------------------------------I--------------------I---
B---8--8--8b--7--------5--5--4--4--I--7-------8-----5---I---
G----------------------------------I--------------------I---
D---9--9--9b--7--------5--5--4--4--I--7-----9-------5---I---
A---0--0---------------------------I--------------------I---
E---------7---7--------7--7--7--7--I--0--0----------0---I---



{ Play part II again once for each of the following verses: }

If blood will flow when flesh and steel are one
Drying in the colour of the evening sun
Tomorrow's rain will wash the stains away
But something in our minds will always stay

Perhaps this final act was meant to clinch a lifetime's argument
That nothing comes from violence and nothing ever could
For all those born beneath an angry star
Lest we forget how fragile we arePart III:

{ Lyrics for this part: }

On and on the rain will fall
Like tears from a star   like tears from a star
On and on the rain will say
How fragile we are   how fragile we are


e----------------------------I--------------------------I-----------------------I---
B---10b--10--10-(s8)------8--I--8--8--8---(7p)------7---I--8--7--7--5-------5---I---
G----------------------------I--------------------------I-----------------------I---
D---10b--10--10-(s9)----9----I--9--9--9---(7p)----7-----I--9--7--7--5----5------I---
A----0---0---0--(s7)--7------I--7--7--7-----------------I-----------------------I---
E----------------------------I------------(7p)--7-------I--0--0--0--0-----------I---


e------------------I-----------I---
B---7--8--7--7--5--I--5--7--8--I---
G------------------I-----------I---
D---7--9--7--7--5--I--5--7--9--I---
A------------------I-----------I---
E---0--0--0--0--0--I--0--0--0--I---



e----------------------------I--------------------------I-----------------------I---
B---10b--10--10-(s8)------8--I--8--8--8---(7p)------7---I--8--7--7--5-------5---I---
G----------------------------I--------------------------I-----------------------I---
D---10b--10--10-(s9)----9----I--9--9--9---(7p)----7-----I--9--7--7--5----5------I---
A----0---0---0--(s7)--7------I--7--7--7-----------------I-----------------------I---
E----------------------------I------------(7p)--7-------I--0--0--0--0-----------I---


e------------------I---
B---7--8--7--7--5--I---
G------------------I---
D---7--9--7--7--5--I---
A------------------I---
E---0--0--0--0--0--I---

Part IV (Solo):

e------7p5--5h7---I-----7p5--5--7--8--10--7--7p0--I----------------------I---
B---5-------------I--5----------------------------I--8--5--7--8--5--7p0--I---
G-----------------I-------------------------------I----------------------I---
D-----------------I-------------------------------I----------------------I---
A-----------------I-------------------------------I----------------------I---
E-----------------I-------------------------------I----------------------I---


e------------5--7--8--10--7--8--5--7-----5--7p0--I---
B---5--7--8---------------------------8----------I---
G------------------------------------------------I---
D------------------------------------------------I---
A------------------------------------------------I---
E------------------------------------------------I---


e-------12--14--15--15--14--12--I--14--15--14--14--12\11------I---
B---12--------------------------I-------------------------12--I---
G-------------------------------I-----------------------------I---
D-------------------------------I-----------------------------I---
A-------------------------------I-----------------------------I---
E-------------------------------I-----------------------------I---

[ Tab from: http://www.guitartabs.cc/tabs/s/sting/fragile_tab_ver_4.html ]
e---12\11------12--I-----I---
B----------12------I-5---I---
G------------------I-----I---
D------------------I-----I---
A------------------I-----I---
E------------------I-----I---


e-------7---5---7---8---7---5-------I-----------------5---7---5-------------I--
B---5---------------------------8---I-7---5---7---8---------------8---7---5-I--
G-----------------------------------I---------------------------------------I--
D-----------------------------------I---------------------------------------I--
A-----------------------------------I---------------------------------------I--
E-----------------------------------I---------------------------------------I--


e---------------5---5p0---I---------3---2---2s3s2---I----7---5---7---8---7---I-
B---5---7---8-------------I-----5-------------------I-5----------------------I-
G-------------------------I-4-----------------------I------------------------I-
D-------------------------I-------------------------I------------------------I-
A-------------------------I-------------------------I------------------------I-
E-------------------------I-------------------------I------------------------I-

(Use your thumb on this part)
e---8---8---8---7---7---5---5--------------------------I---
B-------------------------------8---8---7---5---7--(5)-I---
G------------------------------------------------------I---
D------------------------------------------------------I---
A------------------------------------------------------I---
E------------------------------------------------------I---


e------7p5---7---8---7---5--------------I-------------------------------I---
B---5------------------------8---7------I---8---7---8---7---8---7---5---I---
G---------------------------------------I-------------------------------I---
D---------------------------------------I-------------------------------I---
A---------------------------------------I-------------------------------I---
E---------------------------------------I-------------------------------I---

Part V:

{ Lyrics for this part: }

On and on the rain will fall
Like tears from a star   like tears from a star
On and on the rain will say
How fragile we are   how fragile we are
How fragile we are   how fragile we are



e----------------------------I--------------------------I-----------------------I---
B---10b--10--10-(s8)------8--I--8--8--8---(7p)------7---I--8--7--7--5-------5---I---
G----------------------------I--------------------------I-----------------------I---
D---10b--10--10-(s9)----9----I--9--9--9---(7p)----7-----I--9--7--7--5----5------I---
A----0---0---0--(s7)--7------I--7--7--7-----------------I-----------------------I---
E----------------------------I------------(7p)--7-------I--0--0--0--0-----------I---


e------------------I-----------I---
B---7--8--7--7--5--I--5--7--8--I---
G------------------I-----------I---
D---7--9--7--7--5--I--5--7--9--I---
A------------------I-----------I---
E---0--0--0--0--0--I--0--0--0--I---



e----------------------------I--------------------------I-----------------------I---
B---10b--10--10-(s8)------8--I--8--8--8---(7p)------7---I--8--7--7--5-------5---I---
G----------------------------I--------------------------I-----------------------I---
D---10b--10--10-(s9)----9----I--9--9--9---(7p)----7-----I--9--7--7--5----5------I---
A----0---0---0--(s7)--7------I--7--7--7-----------------I-----------------------I---
E----------------------------I------------(7p)--7-------I--0--0--0--0-----------I---


e------------------I---
B---7--8--7--7--5--I---
G------------------I---
D---7--9--7--7--5--I---
A------------------I---
E---0--0--0--0--0--I---


e------------------I-----------------I---
B---7--8--7--7--5--I--7--8--7--7--5--I---    Play these last two bits again
G------------------I--------------5--I---  6 times, singing ( fading ):
D---7--9--7--7--5--I--7--9--7--7--5--I---    "how fragile we are"
A------------------I--------------0--I---
E---0--0--0--0--0--I--0--0--0--0-----I---

Part VI;
e------7p5--7----I-----7p5--7--7p5--7/12------I-----7p5--7----I---
B---5------------I--5-------------------------I--5------------I---
G----------------I----------------------------I---------------I---
D----------------I----------------------------I---------------I---
A----------------I----------------------------I---------------I---
E----------------I----------------------------I---------------I---

                                -> Play this as fast as you can
e----------------------------I--------------------------------------I---
B----------------------------I--------------------------------------I---
G---4--5-----4---------------I--------------------------------------I---
D---------7-----5--7--4--5---I-----4--5-----4--5--7--4--5--7--4--5--I---
A----------------------------I--7--------7--------------------------I---
E----------------------------I--------------------------------------I---

                                                             until here <-
e---------------------------------------I-----------------------------------I--
B---------------------------------------I-----------------------------------I--
G---------------------------------------I--------------------------------4--I--
D------4--5-----4--5-----4--5-----4--5--I-----4--5-----4--5-----4--5--7-----I--
A---7--------7--------7--------7--------I--7--------7--------7--------------I--
E---------------------------------------I-----------------------------------I--


e------7p5--7----I--12--I---
B---5------------I--12--I---
G----------------I--12--I---
D----------------I------I---
A----------------I------I---
E----------------I--12--I---