Sting - Fragile Chords & Tabs

 

Fragile Chords & Tabs

Sting Chords & Tabs

Version: 1 Type: Tab 0 ratings
1 star 2 stars 3 stars 4 stars 5 stars
comments

Fragile Tab

#----------------------------------PLEASE NOTE---------------------------------#
#This file is the author's own work and represents their interpretation of the #
#song. You may only use this file for private study, scholarship, or research. #
#------------------------------------------------------------------------------##
>From sd021@diana.di.fc.ul.pt (SDII-Grupo_sd021)
Newsgroups: alt.guitar.tab
Subject: TAB: Sting: Fragile
Date: 8 Mar 1994 03:59:20 -0600

Fragile  -  Sting  from "Nothing Like The Sun" album
                   Transcription: Luis Ferreira



Part I (Intro):

e------7p5--5h7--I-----7p5--5h7--7p5--5h7--7p5h7\0--I---
B---5------------I--5-------------------------------I---
G----------------I----------------------------------I---
D----------------I----------------------------------I---
A----------------I----------------------------------I---
E----------------I----------------------------------I---


e------7p5--5h7--I-----7p5--5h7--7p5--5h7--I---
B---5------------I--5----------------------I---
G----------------I-------------------------I---
D----------------I-------------------------I---
A----------------I-------------------------I---
E----------------I-------------------------I---



Part II:

e------------------------I-----------------------------I---
B---12---------10-----8--I--12--12-----8--------7--5---I---
G------------------------I-----------------------------I---
D---12-----10---------9--I--12--12-----9-----7-----5---I---
A------------------------I----------0-----0--------0---I---
E----0--0----------0-----I---0---0---------------------I---


e---------------------------------I--------------------I---
B---8--8--8--------7--5--5--4--4--I--7--------5--8--8--I---
G---------------------------------I--------------------I---
D---9--9--9-----7-----5--5--4--4--I--7-----5-----9--9--I---
A---0--0--------------------------I--------------------I---
E---------7--7--------7--7--7--7--I--0--0--------0--0--I---


e-----------12------------------------I-------------------------I---
B---12--12------12---------10--8--8---I--12--12--8--------7--5--I---
G-------------------------------------I-------------------------I---
D---12--12-------------10------9--9---I--12--12--9-----7-----5--I---
A-------------------------------------I----------0--0--------0--I---
E----0---0----------0----------0--0---I---0---0-----------------I---


e------------------------------------------I-----------------I---
B---8--8--8-----8--8--------7--5--5--4--4--I--7--------8--5--I---
G------------------------------------------I-----------------I---
D---9--9--9-----9--9-----7-----5--5--4--4--I--7-----9-----5--I---
A---0--0-----------------------------------I-----------------I---
E---------7--7--------7--------7--7--7--7--I--0--0--------0--I---


Part III:

e------------------------I--------------------I-----------------------I---
B---10--10--10--------8--I--8--8--8--------7--I--8--7--7--5--5-----5--I---
G------------------------I--------------------I-----------------------I---
D---10--10--10-----9-----I--9--9--9-----7-----I--9--7--7--5--5--5-----I---
A----0---0---0-----------I--------------------I-----------------------I---
E---------------7--------I--7--7--7--7--------I--0--0--0--0--0--------I---


e------------------I-----------I---
B---7--8--7--7--5--I--5--7--8--I---
G------------------I-----------I---
D---7--9--7--7--5--I--5--7--9--I---
A------------------I-----------I---
E---0--0--0--0--0--I--0--0--0--I---


e------------------------I-----------------I-----------------------I---
B---10--10--10--------8--I--8--8--8--------I--8--7--7--5--5-----5--I---
G------------------------I-----------------I-----------------------I---
D---10--10--10-----9-----I--9--9--9-----7--I--9--7--7--5--5--5-----I---
A----0---0---0-----------I-----------------I-----------------------I---
E---------------7--------I--7--7--7--7-----I--0--0--0--0--0--------I---


e------------------I---
B---7--8--7--7--5--I---
G------------------I---
D---7--9--7--7--5--I---
A------------------I---
E---0--0--0--0--0--I---



Part IV (Solo):

e------7p5--5h7---I-----7p5--5--7--8--10--7--7\0--I----------------------I---
B---5-------------I--5----------------------------I--8--5--7--8--5--7\0--I---
G-----------------I-------------------------------I----------------------I---
D-----------------I-------------------------------I----------------------I---
A-----------------I-------------------------------I----------------------I---
E-----------------I-------------------------------I----------------------I---


e------------5--7--8--10--7--8--5--7-----5--7\0--I---
B---5--7--8---------------------------8----------I---
G------------------------------------------------I---
D------------------------------------------------I---
A------------------------------------------------I---
E------------------------------------------------I---

[ Tab from: http://www.guitartabs.cc/tabs/s/sting/fragile_tab.html ]
e-------12--14--15--15--14--12--I--14--15--14--14--12\11------I---
B---12--------------------------I-------------------------12--I---
G-------------------------------I-----------------------------I---
D-------------------------------I-----------------------------I---
A-------------------------------I-----------------------------I---
E-------------------------------I-----------------------------I---


e---12\11------12--I-----I---
B----------12------I-5---I---
G------------------I-----I---
D------------------I-----I---
A------------------I-----I---
E------------------I-----I---


e-------7---5---7---8---7---5-------I-----------------5---7---5-------------I--
B---5---------------------------8---I-7---5---7---8---------------8---7---5-I--
G-----------------------------------I---------------------------------------I--
D-----------------------------------I---------------------------------------I--
A-----------------------------------I---------------------------------------I--
E-----------------------------------I---------------------------------------I--


e---------------5---5\0---I---------3---2---2/3\2---I----7---5---7---8---7---I-
B---5---7---8-------------I-----5-------------------I-5----------------------I-
G-------------------------I-4-----------------------I------------------------I-
D-------------------------I-------------------------I------------------------I-
A-------------------------I-------------------------I------------------------I-
E-------------------------I-------------------------I------------------------I-

(Use your thumb on this part)
e---8---8---8---7---7---5---5-----------------------I---
B-------------------------------8---8---7---5---7---I---
G---------------------------------------------------I---
D---------------------------------------------------I---
A---------------------------------------------------I---
E---------------------------------------------------I---


e-------7---5---7---8---7---5-----------I-------------------------------I---
B---5---------------------------8---7---I---8---7---8---7---8---7---5---I---
G---------------------------------------I-------------------------------I---
D---------------------------------------I-------------------------------I---
A---------------------------------------I-------------------------------I---
E---------------------------------------I-------------------------------I---


Part V:

e------------------------I--------------------I-----------------------I---
B---10--10--10--------8--I--8--8--8--------7--I--8--7--7--5--5-----5--I---
G------------------------I--------------------I-----------------------I---
D---10--10--10-----9-----I--9--9--9-----7-----I--9--7--7--5--5--5-----I---
A----0---0---0-----------I--------------------I-----------------------I---
E---------------7--------I--7--7--7--7--------I--0--0--0--0--0--------I---


e------------------I-----------I---
B---7--8--7--7--5--I--5--7--8--I---
G------------------I-----------I---
D---7--9--7--7--5--I--5--7--9--I---
A------------------I-----------I---
E---0--0--0--0--0--I--0--0--0--I---


e------------------------I--------------------I-----------------------I---
B---10--10--10--------8--I--8--8--8--------7--I--8--7--7--5--5-----5--I---
G------------------------I--------------------I-----------------------I---
D---10--10--10-----9-----I--9--9--9-----7-----I--9--7--7--5--5--5-----I---
A----0---0---0-----------I--------------------I-----------------------I---
E---------------7--------I--7--7--7--7--------I--0--0--0--0--0--------I---


e------------------I---
B---7--8--7--7--5--I---
G---------------5--I---
D---7--9--7--7--5--I---
A------------------I---
E---0--0--0--0--0--I---


e------------------I-----------------I---
B---7--8--7--7--5--I--7--8--7--7--5--I---    Play these last two bits again
G------------------I--------------5--I---  6 times, singing ( fading ):
D---7--9--7--7--5--I--7--9--7--7--5--I---    "how fragile we are"
A------------------I--------------0--I---
E---0--0--0--0--0--I--0--0--0--0-----I---



Part VI:

e------7p5--5h7--I-----7p5--5h7--7p5--5h7/12--I-----7p5--5h7--I---
B---5------------I--5-------------------------I--5------------I---
G----------------I----------------------------I---------------I---
D----------------I----------------------------I---------------I---
A----------------I----------------------------I---------------I---
E----------------I----------------------------I---------------I---

                                -> Play this as fast as you can
e----------------------------I--------------------------------------I---
B----------------------------I--------------------------------------I---
G---4--5-----4---------------I--------------------------------------I---
D---------7-----5--7--4--5---I-----4--5-----4--5--7--4--5--7--4--5--I---
A----------------------------I--7--------7--------------------------I---
E----------------------------I--------------------------------------I---

                                                             until here 
Comments