Sting - Fields Of Gold Chords & Tabs

 

Fields Of Gold Chords & Tabs

Sting Chords & Tabs

Version: 2 Type: Tab 1 rating
1 star 2 stars 3 stars 4 stars 5 stars
comments

Fields Of Gold Tab

   
#----------------------------------PLEASE NOTE---------------------------------#
#This file is the author's own work and represents their interpretation of the #
#song. You may only use this file for private study, scholarship, or research. #
#------------------------------------------------------------------------------#
From: etlnbb@etlxdmx.ericsson.se ( neil bergin xd/gk)
Subject: TAB: Fields Of Gold - Sting

Posted by: csrc08@science.di.fc.ul.pt (CSRC)


Fields Of Gold  -  Sting  from the album "Ten Summoner's Tales"
                   Transcription: Luis Ferreira



{ Synth + Percussion + Bass + Guitar }


e--14--|-----|--0--0--0--0---|--0--0--0--0---|--
B--15--|-----|---2--2--2--2--|---2--2--2--2--|--
G--16--|-----|----2--2--2--2-|----2--2--2--2-|--

e--0--0--0--0---|--0--0--0--0---|--0--0--0--0---|-----|--
B---2--2--2--2--|---0--0--0--0--|---0--0--0--0--|-----|--
G----4--4--4--4-|----4--4--4--4-|----4--4--4--4-|-----|--


{ Pipe } { Bm G D }

{ You can play this on the guitar instead of using a pipe... }
{ If they did it in Oslo, why can't we? :) }

e--10---10-|--9-7--------------|----10---|--
B----------|------10--8--10-10-|--8----7-|--
G----------|-------------------|---------|--


Play this with the next verse:

e-------------|---------------|---------------|--
B-------------|---------------|---------------|--
G--7-6-4-2--2-|--7-6-4-2--2/4-|--4--2-2-------|--
D-------------|---------------|----------0-/4-|--
A-------------|---------------|---------------|--
E-------------|---------------|---------------|--

e-------------|-------------|------------------|--
B-------------|-------------|------------------|--
G--7-6-4-2--2-|--7-6-4-2--2-|------------------|--
D-------------|-------------|--2-4-5--4-4--2-0-|--
A-------------|-------------|------------------|--
E-------------|-------------|------------------|--


{ Pipe } { Bm G D }

Or guitar solo:

e--10---10-|--9-7--------------|----10---|--
B----------|------10--8--10-10-|--8----7-|--
G----------|-------------------|---------|--

[ Tab from: http://www.guitartabs.cc/tabs/s/sting/fields_of_gold_tab_ver_2.html ]
{ Fast fingering - finger strings B, G and D in that order 5 times per
  measure, using the following patterns with each chords:
    When in Bm play  x x  9 11 10 x      When in G  play  x x 12 12 10 x
    When in D  play  x x 12 11 10 x      When in A  play  x x 11  9 10 x }


{ Play this part with the same patterns described above for G, D and A }
{ Pull the three strings simultaneously 4 times per measure }

G                      D
I never made promises lightly
G                    D
And there have been some that I've broken
G                   D
But I swear in the days still left

e-------------------|-------------------|--
B-------------------|-------------------|--
G--12---11-11---9-7-|--12---11-11---9-7-|--

       G       A         D
We'll walk in fields of gold
       G       A             D
We'll walk in fields of gold


{ Guitar solo }

e--10-9-7--------|--10-9-7-----------|-------------------|--
B----------10-10-|----------10-10/12-|--12--10-10----5/7-|--
G----------------|-------------------|-------------7-----|--
D----------------|-------------------|-------------------|--
A----------------|-------------------|-------------------|--
E----------------|-------------------|-------------------|--

e--10-9-7--------|--10-9-7---------|------------------|--
B----------10-10-|----------10--10-|--5-7-8--7-7--5---|--
G----------------|-----------------|----------------7-|--
D----------------|-----------------|------------------|--
A----------------|-----------------|------------------|--
E----------------|-----------------|------------------|--



Enjoy! :)

-----------------------------------------------------------------------------
|       Luis Ferreira        |  You see a city in the desert lies           |
|                            |  The vanity of an ancient king               |
| csrc08@science.di.fc.ul.pt |  The city lies in broken pieces              |
|                            |  Where the wind howls and the vultures sing  |
|         Portugal           |      Sting  -  Mad About You  (Soul Cages)   |
-----------------------------------------------------------------------------
Comments