Sting - Fields Of Gold Chords & Tabs

 

Fields Of Gold Chords & Tabs

Sting Chords & Tabs

Version: 1 Type: Tab 1 rating
1 star 2 stars 3 stars 4 stars 5 stars
comments

Fields Of Gold Tab

   
#----------------------------------PLEASE NOTE---------------------------------#
#This file is the author's own work and represents their interpretation of the #
#song. You may only use this file for private study, scholarship, or research. #
#------------------------------------------------------------------------------##
From: sekhar@adtaz.sps.mot.com (Sekhar Narayanaswami)

Fields of Gold - Sting
======================

This is what I hear...

Intro:  Bm (8 bars or so)

Bm                        G            D

e ---10-----9-7-------|-------------------|----------------|
B --------------10--8-|--10----------8-10-|-7--------------|
G --------------------|-------------------|----------------|
D --------------------|-------------------|----------------|
A --------------------|-------------------|----------------|
E --------------------|-------------------|----------------|
^ . ^  .   ^ . ^ .  ^ . ^ . ^ . ^ .    ^ . ^ . ^ . ^ . 

Bm                        G            D

e ---10-----9-7-------|-------------------|----------------|
B --------------10--8-|--10---------------|----------------|
G --------------------|-------------------|----------------|
D --------------------|-------------------|----------------|
A --------------------|-------------------|----------------|
E --------------------|-------------------|----------------|
     ^ . ^  .   ^ . ^ .  ^ . ^ . ^ . ^ .    ^ . ^ . ^ . ^ .

[ Tab from: http://www.guitartabs.cc/tabs/s/sting/fields_of_gold_tab.html ]
---------- "/" means slide from the
                                         |              first note to the next
             Bm                  G       V
e ----10-9-|-7------------10-9-|-7---------------|
B ---------|---10--10----------|---10--10/12-----|
G ---------|-------------------|-----------------|
D ---------|-------------------|-----------------|
A ---------|-------------------|-----------------|
E ---------|-------------------|-----------------|
      ^  .   ^ . ^ .  ^ . ^  .   ^ . ^ .  ^ . ^ .

     G                   D                  Bm
e ----------------------|------------10-9-|-7------------10-9-|
B ---12--10-10----------|-----------------|---10--10----------|
G ------------------9-7/|11---------------|-------------------|
D ----------------------|-----------------|-------------------|
A ----------------------|-----------------|-------------------|
E ----------------------|-----------------|-------------------|
     ^ . ^  .   ^ . ^ .  ^ . ^ . ^ . ^  .   ^ . ^ .  ^ . ^  . 

   G     D                G      A          D
e -7--------------------|-----------------|--------------|
B ---10--10-------------|-8---------------|--------------|
G -----------------9-11-|-----11-11-----9-|-7------------|
D ----------------------|-----------------|--------------|
A ----------------------|-----------------|--------------|
E ----------------------|-----------------|--------------|
   ^ . ^ .  ^ . ^  .      ^ . ^  .  ^ . ^.  ^ .^ . ^. ^ .


Chords:
Bm:x24432
Bm/A:x04432
G:320003
D:xx0232
D/C#:x40232
A:x02220
G/B:x20003  

Comments