Sting - Every Breath You Take Chords & Tabs

 

Every Breath You Take Chords & Tabs

Sting Chords & Tabs

Version: 3 Type: Tab 0 ratings
1 star 2 stars 3 stars 4 stars 5 stars
comments

Every Breath You Take Tab

sting,every breath you take.
Tabbed by Jibesh,jibesh@hotmail.com.
  
this is the first time i'm tabbing ,oops too difficult to tab it.i'm giving it a try.
e--------------------------------------
B---------------------------------------
G----------2-------4----2----0--------------
D------0-------0-----------------0---------  
A---------------------------------------
E---3-------------------------------------
 repeat this as many times as you like i dont no what chord it is but i think it sounds that way
    
      the next part it this

e--------------------------------------
B---------------------------------------
G-----------------------0-----------------
D--------------4------------4---------4----
A---------2--------2-------------2---------
E-----0-----------------------------------
    again repeat this

[ Tab from: http://www.guitartabs.cc/tabs/s/sting/every_breath_you_take_tab_ver_3.html ]
e--------------------------------------
B---------------------3------------------
G-------------5-----------5-------5---------
D---------5-------5-----------5------------
A-----3----------------------------------
E----------------------------------------
  repeat

e--------------------------------------
B---------------------5------------------
G-------------7-----------7-------7---------
D---------7-------7-----------7------------
A-----5----------------------------------
E----------------------------------------
  again repeat

e--------------------------------------
B---------------------7------------------
G-------------9-----------9-------9---------
D---------9-------9-----------9------------
A-----7----------------------------------
E----------------------------------------
  repeat


e--------------------------------------
B---------------------9------------------
G-------------11-----------11-------11---------
D---------11-------11-----------11------------
A-----9----------------------------------
E----------------------------------------
  well this is how the song goes and i think it sounds very close to it. 
:: Ultimate Guitar Archive :: 
http://www.ultimate-guitar.com 

Comments