Sting - Desert Rose Chords & Tabs

 

Desert Rose Chords & Tabs

Sting Chords & Tabs

Version: 1 Type: Tab 0 ratings
1 star 2 stars 3 stars 4 stars 5 stars
comments

Desert Rose Tab

   
#----------------------------------PLEASE NOTE---------------------------------#
#This file is the author's own work and represents their interpretation of the #
#song. You may only use this file for private study, scholarship, or research. #
#------------------------------------------------------------------------------#

 Desert Rose
                                  by Sting
                                  from - Brand New Day
                            ------------------------------


Intro (kind of a bunch of similar rhythms- repeated a few times):
--------1-----1-----1------|--------3-----3------3-----|-------5-----5-----5-----|
------3-----3-----3---3---|------3-----3-----3---3---|-----3-----3-----3---3---|
----2-----2-----2-------2-|----2-----2-----2-------2-|---2-----2-----2-------2-|
-0--------------------------|-0---------------------------|-0-------------------------|
----------------------------|------------------------------|----------------------------|
----------------------------|------------------------------|----------------------------|

-------5-----5-----5------|
-----3-----3-----3---3---|
---2-----2-----2-------2-|
-0-------------------------|
---------------------------|
---------------------------|
[ Tab from: http://www.guitartabs.cc/tabs/s/sting/desert_rose_tab.html ]
Opening melody (with vocals)
--------------------------|----------------------|-------------------|------------------3-|
----3-3-3-3-33-3-3-|--3-3-3-3-5-6-8--|-6-5-3-----------|----------3-5-6---|
--------------------------|----------------------|-------5-5-5-5--|---5-5-5----------|
-0-----------------------|0---------------------|-3----------------|-3------------------|
--------------------------|----------------------|-------------------|--------------------|
--------------------------|----------------------|-------------------|--------------------|

-----------------|-----------|------------------|
--6-5------------|-----------|5-6--8--6-5-------|
------7-5--------|-------5-7-|------------7-6---|
----------8-8-8--|---8-8-----|------------------|
-----------------|-----------|0-----------------|
--6--------------|-6---------|------------------|


Instrumental: (pedal tone - A)
---5-6-5-----------|-------------5-6-8-6-5-|-----------5-----------|----------------5-6-8-6-5-|----------5---------|
------------8-6-5--|-----5-6-8--------------|---8-6-5----8-6-5--|--------5-6-8---------------|--8-6-5---8-6-5-|
---------------------|---------------------------|------------------------|------------------------------|---------------------|
---------------------|---------------------------|------------------------|------------------------------|---------------------|
---------------------|-0------------------------|------------------------|--0--------------------------|---------------------|
---------------------|---------------------------|------------------------|------------------------------|--------------------|
                                    (pedal E)
------------5-6-|-8-6-5----|-----------------|
---5-6-8-------|----------8-|--6-5--7-6-7-|
-----------------|-------------|-----------------|
-----------------|-------------|-----------------|
0---------------|-------------|-----------------|
----------------|--------------|-----------------|
Comments