Sting - Demolition Man Live Chords & Tabs

 

Demolition Man Live Chords & Tabs

Sting Chords & Tabs

Version: 1 Type: Bass Tab 0 ratings
1 star 2 stars 3 stars 4 stars 5 stars
comments

Demolition Man Live Bass Tab

Sting
Demolition Man Live
No Album

------------/-----------   MAIN RIFF X20-|
---------5h6/----------------------------|
-57-57-57---/-557-57---------------------|
7--7--7-----/7---7--0350-----------------|

GUITAR RIFF/SOLO THING
[ Tab from: http://www.guitartabs.cc/tabs/s/sting/demolition_man_live_btab.html ]
---------5H6/-----------    GUITAR SOLO--| X4
-57-57-57---/-557-57---------------------|
7--7--7-----/7---7--0350-----------------|
------------/----------------------------|

------------/-----------   MAIN RIFF X13-|
---------5h6/----------------------------|
-57-57-57---/-557-57---------------------|
7--7--7-----/7---7--0350-----------------|

------------/-------------|   FINALE
---------5h6/-------------|
-57-57-57---/-557-57------|
7--7--7-----/7---7--03450-|
Comments