Sting - Brand New Day Chords & Tabs

 

Brand New Day Chords & Tabs

Sting Chords & Tabs

Version: 1 Type: Bass Tab 0 ratings
1 star 2 stars 3 stars 4 stars 5 stars
comments

Brand New Day Bass Tab

   
song  : Brand New Day
Artist: Sting
Tabber: James Pucyk (pucyk_james@hotmail.com)

INTRO 1
Hold for Whole First Guitar Intro

INTRO 2
G|---|-------|------|----------|
D|---|-------|------|--------42|
A|-R-|-R-9-7-|-2----|-0--2-----|
E|---|-------|----0-|----------|
       H.E E   H  H   H  Q   EE
VERSE 1
G|------|-----------|
D|*-----|--------42*|
A|*2----|-0--2-----*|
E|----0-|-----------|

G|-----------------|------------------|
D|*----------------|--------------42-*|
A|*22--22----------|-00--00--22------*|
E|---------00--00--|------------------|

PRECHORUS
(one day you could be looking
G|----------------|----------------|----------------|
D|----------------|----------------|----------------|
A|-22--22--55--55-|---------00--00-|-22--22--55--55-|
E|----------------|-00--00---------|----------------|

G|-----------------|
D|-----------------|
A|-----------------|
E|-00--00--00-0-024|
[ Tab from: http://www.guitartabs.cc/tabs/s/sting/brand_new_day_btab.html ]
Chorus
G|---------------------|--------------------|
D|*--------------------|----------------4-2*|
A|*222-2--22-----------|-00--00--22--2-----*|
E|------------00--00-02|--------------------|
   This is the basic chorus pattern, give or take the lead notes
   and rhythm 


Verse 2
G|----------------------------|-----------------|
D|----242----424----242---424-|-----------------|
A|-22-----22------------------|-00--00--22-2222-|
E|---------------00-----00----|-----------------|

G|----------------------------|----------------|
D|----242----424----242---424-|----------------|
A|-22-----22------------------|----------------|
E|---------------00-----00----|-00--00--00--00-| COntinue on E for
                                                 the wait a minute
                                                 part

Chorus 2
G|------------------------|--------------------|
D|*---242----424----------|----------------4-2*|
A|*22-----22--------------|-00--00--22--2-----*|
E|---------------00--00-02|--------------------|
   This is the basic chorus pattern, give or take the lead notes
   and rhythm 


NOTES: This is the basic structure, I have not tabbed out every part Verbatim,
as for instance the second and last chorus is quite long 
and features allot of improvisation, which you could do on your own. 
For instance you could supplement the little trills Sting does on 
between the 3rd and 4th beats of the first bar of the 2nd Chorus 
repetition.

fin
Comments