Sting - After The Rain Has Fallen Chords & Tabs

 

After The Rain Has Fallen Chords & Tabs

Sting Chords & Tabs

Version: 1 Type: Tab 0 ratings
1 star 2 stars 3 stars 4 stars 5 stars
comments

After The Rain Has Fallen Tab

   
#----------------------------------PLEASE NOTE---------------------------------#
#This file is the author's own work and represents their interpretation of the #
#song. You may only use this file for private study, scholarship, or research. #
#------------------------------------------------------------------------------

After The Rain Has Fallen --  by Sting
from "Brand New Day"
      --------------------------------------------------
[ Tab from: http://www.guitartabs.cc/tabs/s/sting/after_the_rain_has_fallen_tab.html ]
Cm7
----------------------------|-------------------------|--------------------------|
-------------3-4-3--------|--------------------------|-------------------------|
---5-5-5------------5-3--|-3-5--------------------|----3-3-3-3-3-2--1-|        2x
----------------------------|-------------------------|-------------------------|
-3-------------------------|-------------------------|--3----------------------|
----------------------------|-------------------------|-------------------------|

Cm7
---------------------|-----------------|------------------------|---------------------|
---------------------|-----------------|------------------------|---------------------|
-3-3-3-3-3-3----|-3-3-3-3-5-7-|-3-3-3-3-3-3-3-3-|-3-3-3-3-3-2-0-|   play throughout verses
---------------------|-----------------|------------------------|---------------------|
-3------------------|-----------------|-3---------------------|---------------------|-
---------------------|-----------------|------------------------|---------------------|


----------------------------------------------------------|
----------------------------------------------------------|
----------------------------------------------------------|
------------6---------8----------6-----------8------------|
------6-8-----6--8------6--8-------6--8-------------------|
-6--------------------------------------------------------|




Comments