Stiltskin - Inside Chords & Tabs

 

Inside Chords & Tabs

Stiltskin Chords & Tabs

Version: 5 Type: Tab 0 ratings
1 star 2 stars 3 stars 4 stars 5 stars
comments

Inside Tab

   
	"Inside" by Stiltskin 
 
 !!!note: this is not the album version of the song. As far as I know the only difference is 
 a slightly extended solo. The version I am working to is on the Second Air Guitar album, and 
 all timings refer to that version (but I think that is the version comonly released)!!!

 tabbed by Eviljoker7075 (www.surfinstan.com/sis)


 Intro:                                   
                              
  E|-------------------------------------------------|
  B|-------------------------------------------------|
  G|------------------9-9-9-9-9-9-9-9----------------|
  D|----4-5-7---------9-9-9-9-9-9-9-9----------------|
  A|--5---------4-5---7-7-7-7-7-7-7-7----------------|
  E|----------5--------------------------------------|



 Chorus:                                Chorus end 1: (bass)
   
  E|----------------------------------||--------------------||
  B|----------------------------------||--------------------||
  G|------------------9-9-9-9-9-9-9-9-||--------------------||
  D|----4-5-7---------9-9-9-9-9-9-9-9-||--------------------||
  A|--5---------4-5---7-7-7-7-7-7-7-7-||--------------------||
  E|----------5-----------------------||-0-0-0-0-0-0-0-0----||


 
 Verse:

         E|------------------------------------------|
 Gtr.1   B|------------------------------------------|
         G|------------------------------------------|
         D|------0-------0-------0-------0-----------|
         A|----2---2---2---0---4---4---2--2----------|
         E|--0-------3-------5-------3---------------|
          |                                          |
         E|----12----------------------12--12--------|
 Gtr.2   B|------12-----------------------12---------|
         G|------------------------------12----------|
         D|------------------------------------------|
         A|------------------------------------------|
         E|------------------------------------------|


         E|------------------------------------------|
 Gtr.1   B|------------------------------------------|
         G|------------------------------------------|
         D|------0-------0-------0-------0-----------|
         A|----2---2---2---0---4---4---2--2----------|
         E|--0-------3-------5-------3---------------|
          |                                          |
         E|--------------------------h12-------------|
 Gtr.2   B|------------------------------h12---------|
         G|------------------------------------------|
         D|------------------------------------------|
         A|------------------------------------------|
         E|------------------------------------------|

[ Tab from: http://www.guitartabs.cc/tabs/s/stiltskin/inside_tab_ver_5.html ]
         E|------------------------------------------|
 Gtr.1   B|------------------------------------------|
         G|------------------------------------------|
         D|------0-------0-------0-------0-----------|
         A|----2---2---2---0---4---4---2--2----------|
         E|--0-------3-------5-------3---------------|
          |                                          |
         E|------------------------------------------|
 Gtr.2   B|-------------------------------h12--------|
         G|------------------------------------------|
         D|------------------------------------------|
         A|------------------------------------------|
         E|------------------------------------------|


         E|------------------------------------------|
 Gtr.1   B|------------------------------------------|
         G|------------------------------------------|
         D|------0-------0-------0-------0-----------|
         A|----2---2---2---0---4---4---2--2----------|
         E|--0-------3-------5-------3---------------|
          |                                          |
         E|------------------------------------------|
 Gtr.2   B|------------------------------------------|
         G|------------------------------------------|
         D|------------------------------------------|
         A|------------------------------------------|
         E|------------------------------------------|




 Bridge:

  E|-------------------------------------------------|
  B|-------------------------------------------------|
  G|--9-9-x-x-x-x------------------------------------|
  D|--9-9-x-x-x-x--5-5-x-x-x-x--7-7-x--10--10-10-10--|
  A|--7-7-x-x-x-x--5-5-x-x-x-x--7-7-x--10--10-10-10--|
  E|---------------3-3-x-x-x-x--5-5-x--8---8--8--8---|



 Solo:

  E|-------------------------------------------------|
  B|-------------------------------------------------|
  G|-------------------------------------------------|
  D|--------5-----5-----7-------5-----5-----7--------|
  A|--7-7-5---7-5---7-5---7-7-5---7-5---7-5----------|
  E|-------------------------------------------------|






 KEY:
   h = harmonic
   x = mute






 Order/timing:


 (choir)

 *INTRO* 


 *VERSE* (0:30)


 *BRIDGE* (0:59)


 *CHORUS* (1:22)


 *CHORUS END* (1:45)


 *VERSE* (1:48)


 *BRIDGE* (2:11)


 *CHORUS* (2:34)


 *Solo* (2:57)


 *Bridge (without singing)* (3:09)


 *Bass Solo (Gtr.1 Verse riff played  on bass)*  (3:23)


 *Chorus* (3:29)



The bass is pretty important for this song. If you'd like it just send me a PM on the UG forum 
and I'll either send you a copy or get it uploaded to the tabs archive!!!

Eviljoker7075
Comments