Stiltskin - Inside Chords & Tabs

 

Inside Chords & Tabs

Stiltskin Chords & Tabs

Version: 4 Type: Tab 0 ratings
1 star 2 stars 3 stars 4 stars 5 stars
comments

Inside Tab

   
Song:Inside
Band:Stiltskin
Album:The Minds Eye

Standard Tuning

Hey, this is tom(tombuttcrunch116@hotmail.com) im the one who tabbed virtualy the
whole biffy album which ive nearly finished by the way. Ive noticed how no-one
tabs any Stiltskin song other than this one so im guna do The Minds Eye album for
ne-one else out there who loves Stiltskin.If anyone wants to say hi feel free.

Intro   
e|---------
b|---------
g|---------
d|---12----
a|---------
E|---------
(feedback on that note)


   D5         A5             E5(on second string)
e|------------------------------------------------------------------
b|------------------------------------------------------------------
g|--------0--2------------------------------------------------------
d|---0--4------------0--2------2------------------------------------
a|--------------0--4------------------------------------------------
E|------------------------------------------------------------------

Verse

Gtr1
e|------------------------------------12~12~--
b|---12----------------------------12---------
g|--------------------------------------------
d|--------------------------------------------
a|--------------------------------------------
E|--------------------------------------------

Gtr2(plays same all through verse)
e|--------------------------------------------
b|--------------------------------------------
g|--------------------------------------------
d|----------------0---------------------------
a|-------2-----------------7--------10--------
E|---0-0---0--3-3---3--5-5---5--8-8----8------

Swing low in dark glass hour
you turn and cower
see it turn to dust
e|---------------------
b|----------------12---

move on a stone dark night
we take to flight
snowfall turns to rust
                   h
e|----------------(19)---

seam in a fusing mine
     h
e|---19--------------

like a nursing rhyme
fat man starts to fall
year in a hostile place
I hear your face
     h h h
e|-------12---
b|-----12-----
g|---12-------
start to call

Bridge
                        hh hh
e|-------------------(7)xx-xx--------------
b|-----------------------------------------
g|---9-9-(0)xx-xx-------xx-xx--------------
d|---9-9-(0)xx-xx--5-5--xx-xx--7-7----10---
a|---7-7-(0)xx-xx--5-5--xx-xx--7-7----10---
E|-----------------3-3---------5-5----8----
and did you think that I've been loosing my way

                        hh hh
e|-------------------(7)xx-xx--------------
b|-----------------------------------------
g|-------(0)xx-xx-------xx-xx--------------
d|---2-2-(0)xx-xx--5-5--xx-xx--7-7----10---
a|---2-2-(0)xx-xx--5-5--xx-xx--7-7----10---
E|---0-0-----------3-3---------5-5----8----
that's because I'm slightly blinded

                        hh hh
e|-------------------(7)xx-xx--------------
b|-----------------------------------------
g|---9-9-(0)xx-xx-------xx-xx--------------
d|---9-9-(0)xx-xx--5-5--xx-xx--7-7----10---
a|---7-7-(0)xx-xx--5-5--xx-xx--7-7----10---
E|-----------------3-3---------5-5----8----
and did you think that I don't make to much sense,

                        hh hh
e|-------------------(7)xx-xx--------------
b|-----------------------------------------
g|-------(0)xx-xx-------xx-xx--------------
d|---2-2-(0)xx-xx--5-5--xx-xx--7-7----10---
a|---2-2-(0)xx-xx--5-5--xx-xx--7-7----10---
E|---0-0-----------3-3---------5-5----8----
that's because I'm broken minded

Chorus
[ Tab from: http://www.guitartabs.cc/tabs/s/stiltskin/inside_tab_ver_4.html ]
   D5         A5             E5(on second string)
e|------------------------------------------------------------------
b|------------------------------------------------------------------
g|--------0--2------------------------------------------------------
d|---0--4------------0--2------2------------------------------------
a|--------------0--4------------------------------------------------
E|------------------------------------------------------------------
Don't keep it
inside
if you belive it
don't keep it all inside

e|-------------------------------------
b|-------------------------------------
g|-------------------------------------
d|-------------------------------------
a|-------------------------------------
E|---0h7-0h7-0h7-0h7-0h7-0h7-0h7-0h7---

Verse2

strong words in a ganges sky
     h  h
e|---12---------------------
b|------12------------------

I have to lie
shadows move in pairs
             h  h  h   h
e|---------------------12---
b|--------------12----------
g|-----------12----12-------

Ring out from a brusied postcard
in the shooting yard
looking through the tears
b|------------------12-------

out of the black slate time
we move in line
but never reach an end
fall in a long stray town
as the ice comes down
rivers start to bend

Bridge

Chorus

Solo

e|----------------------------------------
b|----------------------------------------
g|----------------------------------------
d|------------5--------5--------5--7------
a|---7--7--5-----7--5-----7--5------------
E|----------------------------------------

e|----------------------------------------
b|----------------------------------------
g|----------------------------------------
d|------------5--------5--------5--7------
a|---7--7--5-----7--5-----7--5------------
E|----------------------------------------
This is the solo for the single but the album
version has two extra bars which go like this:
e|----------------------------------------
b|----------------------------------------
g|----------------------------------------
d|---7/9-9--9--7/5--9--7\5------5--7------
a|---------------------------7------------
E|----------------------------------------

e|----------------------------------------
b|----------------------------------------
g|----------------------------------------
d|------------5--------5--------5--7------
a|---7--7--5-----7--5-----7--5------------
E|----------------------------------------

Bridge(without words)
                        hh hh
e|-------------------(7)xx-xx--------------
b|-----------------------------------------
g|-------(0)xx-xx-------xx-xx--------------
d|---2-2-(0)xx-xx--5-5--xx-xx--7-7----10---
a|---2-2-(0)xx-xx--5-5--xx-xx--7-7----10---
E|---0-0-----------3-3---------5-5----8----

                        hh hh
e|-------------------(7)xx-xx-----------------------
b|--------------------------------------------------
g|-------(0)xx-xx-------xx-xx-----------------------
d|---2-2-(0)xx-xx--5-5--xx-xx--7-7----10---(10)-----
a|---2-2-(0)xx-xx--5-5--xx-xx--7-7----10---(10)-----
E|---0-0-----------3-3---------5-5----8----(8)--b---
(on the bend bend till it touches the next string and it should
mute itself but leave a ringing harmonic)

Fill

g|--------------------------------------------------
d|--------------------------------------------------
a|--------2---------5----------7---------10---------
E|---0--0---0--3--3---3---5--5---5--8--8----8-------

e|--------------------------------------------------
b|--------------------------------------------------
g|--------------------------------------------------
d|-------2----------5---------7----------10---------
a|-----2---2------5---5-----7---5-----10----10------
E|---0----------3---------5---------8---------------

e|--------------------------------------------------
b|--------------------------------------------------
g|--------------------------------------------------
d|--------------------------------------pick-rake---
a|--------------------------------------------------
E|--------------------------------------------------

Chorus

End Chord

e|-------------------
b|-------------------
g|---9-----\(2)------
d|---9-----\(2)------
a|---7-----\(0)------
E|-------------------
Comments