Stiltskin - Inside Chords & Tabs

 

Inside Chords & Tabs

Stiltskin Chords & Tabs

Version: 1 Type: Bass Tab 0 ratings
1 star 2 stars 3 stars 4 stars 5 stars
comments

Inside Bass Tab

   
Inside	/	Stiltskin
--------------------------

Album:	The mind's eye
Year:	1994

Tabbed by:	Bjorn Vije (bjorn@scouting.dhs.org)

Member of the Bass Tab Archive Tabbing Army 
http://www.basstabarchive.com


Comment:
The only hit song (in Holland) from this band that made only
one album. Personally I think the rest of the album is of the same
quality as this song... perfect.

There are little rhythmic variations in Part A, you can hear them when you
listen to the song.



Intro:

(choir only)
G    C    G


Part A:

   (play 2X)  
G |------------------|------------------|
D |------------------|------------------|
A |-5-5-5-5----------|-7-7-7-7-7-77-7-7-|
E |----------5-5-5-5-|------------------|


Part B:

   (play 2X)  
G |------------------|------------------|
D |------------------|------------------|
A |------------------|-0-0-----3--------|
E |-0-0------3-3-----|------------------|


Part b1:
[ Tab from: http://www.guitartabs.cc/tabs/s/stiltskin/inside_btab.html ]
G |------------------|
D |------------------|
A |-3----------------| 
E |------------------|


Part C:

   (let ring, play like chords))   
G |------------------|------------------|
D |-----2--------0---|-----0--------0---|
A |---2---2----2---2-|---4---4----2---2-|
E |-0--------3-------|-5--------3-------|


Part A:
(play part A)


Verse:

   (play 5X)  
G |------------------|------------------|
D |------------------|------------------|
A |----------3-3-3-3-|-0-0-0-0--3-3-3-3-|
E |-0-0-0-0----------|------------------|


Part B:
(play part B 4x)


Part A: (chorus)
(play part A 4x)

  
G |-----------------|
D |-----------------|
A |-7-7-7-7-7-7-7-7-|
E |-----------------|


Verse:
(play verse 4x)

Part B:
(play part B 4x)

Part A: (chorus)
(play part A 4x)

Solo:
(play verse 4x)

Part B:
(play part B 2x)

Part b1:
(play part b1)

Part C:
(play part C 1x)

Part A:
(play part A 9x)

End on E

Comments