Stills The - Still In Love Song Chords & Tabs

 

Still In Love Song Chords & Tabs

Stills The Chords & Tabs

Version: 2 Type: Tab 0 ratings
1 star 2 stars 3 stars 4 stars 5 stars
comments

Still In Love Song Tab

Artist: The Stills
Title: Still In Love Song
Tabbed By: OCArtistRocker 

FYI: This is my first tab. Questions..comments..concerns let me know - OCArtistRocker@yahoo.com

INTRO 
-Guitar 2 
e|--7--|
B|--7--|
G|--9--| (Strum once every 4 beats,
D|--9--|  then continuous after Guitar 2 starts)
A|--7--|
E|--7--|

-Guitar 1 (after 10 measures of Guitar 1)
e|--14-------14-------14----15-------14-------14----12-------12-------12-------12-------12-------12-|
B|-----12-------12-------12----12-------12-------12----12-------12-------12-------12-------12-------|
G|--------12-------12-------------12-------12-------------12-------12-------12-------12-------12----| x2
D|--------------------------------------------------------------------------------------------------|
A|--------------------------------------------------------------------------------------------------|
E|--------------------------------------------------------------------------------------------------|

VERSE
e|-----------------------------------------------------------|
B|-----------------------------------------------------------|
G|------------------4---------------4-------5--------2-------| x2
D|--5-------7-------4-------2-------4-(x4)--5-(x16)--2-(x16)-|
A|--5-(x8)--7-(x8)--2-(x8)--2-(x4)--2-------3--------0-------|
E|--3-------5---------------0--------------------------------|

CHORUS
-Guitar 2
e|-------------------------|
B|-------------------------|
G|--5-------4--------------| x4
D|--5-(x4)--4-(x4)--2------|
A|--3-------2-------2-(x8)-|
E|------------------0------|
[ Tab from: http://www.guitartabs.cc/tabs/s/stills_the/still_in_love_song_tab_ver_2.html ]
-Guitar 1
e|--12-------|
B|-----12----|
G|--------12-| x24
D|-----------|
A|-----------|
E|-----------|

CHORUS 2
e|---------------------------|
B|---------------------------|
G|-----------5-------7-------|
D|--7--------5-(x8)--7-(x16)-|
A|--7-(x16)--3-------5-------|
E|--5------------------------|

Verse 2 (with delay effect)
e|---------------------------|
B|---------------------------|
G|--0--2--4----------------0-|
D|-----------2-4-5----2------|
A|---------------------------|
E|---------------------------|

INTRO

VERSE
When we were lovers
we were kissers
we were holders of hands
we were make believers
just losing time
and you said you'd rather live in tee pee land
than say that you care but you don't
that's heartless and i will not try

CHORUS
but i'm still in love and i'm still in love
yeah i'm still in love and i'm still in love

VERSE
your dreams of acting on screen
what do they mean
you'll be dancing senseless in your bedroom
and you find yourself out of a job
and before too long you'll be selling lemonade
to the overpaid

CHORUS
and i'm still in love and i'm still in love
and i'm still in love and i'm still in love

CHORUS 2
and i'm still in love and i'm still in love

CHORUS, Guitar 1 only
Ooohh...

INTRO, Guitar 1 only
Ooohh...

vERSE 2
i remember it was summer
i was out of my head but you weren't your selfish end
waste of space

CHORUS 
but i'm still in love and i'm still in love
and i'm still in love and i'm still in love
and i'm still in love and i'm still in love
and i'm still in love 

END ON INTRO, Guitar 2





Comments