Stills - Of Montreal Chords & Tabs

 

Of Montreal Chords & Tabs

Stills Chords & Tabs

Version: 1 Type: Tab 0 ratings
1 star 2 stars 3 stars 4 stars 5 stars
comments

Of Montreal Tab

   
The Stills
Of Montreal - from Logic will brake your heart
 
Tabbed by: Mark Bryce	31st March 2005

Email: Brycey81a@hotmail.com
Web: www.brycey.co.uk
_____________________________________________________

Tuning: EADGBe

Legend
	h    - hammer on
	p    - pull off
	/    - slide up
	x    - muted note
	

Guitar 1: Rhythm Guitar
Guitar 2: Lead Guitar
Guitar 3: extra guitar for parts
_____________________________________________________

Intro part 1:


Guitar 2


e|---------------------------------------------|
B|-x-x-x-x-x-x-x-x-x-x-x-x-x-x-x-x-10-10-10-10-|
G|-7-7-7-7-7-7-7-7-6-6-6-6-6-6-6-6-6--6--6--6--| (x2)
D|---------------------------------------------|
A|---------------------------------------------|
E|---------------------------------------------|
_____________________________________________________

Intro part 2:

Guitar 1

e|-------------------------------------------------------------|
B|-------------------------------------------------------------|
G|-------------------------------------------------------------| 
D|-------------------------------------------------------------|
A|-5-5-5-5-5-5-5-5-5-5-5-5-5-5-5-5-4-4-4-4-4-4-4-4-4-4-4-4-4-4-|
E|-------------------------------------------------------------|


Guitar 2

e|---------------------------------------0-0-0-----------0-0-0-|
B|-x-x-x-x-x-x-x-x-x-x-x-x-x-x-x-x-x-x-x-x-x-x-x-x-x-x-x-x-x-x-|
G|-6-6-6-6-6-6-6-6-9-9-9-9-9-9-9-9-9-9-9-9-9-9-7-7-7-7-7-7-7-7-| 
D|-------------------------------------------------------------|
A|-------------------------------------------------------------|  
E|-------------------------------------------------------------|    


Guitar 3

  Asus4				 A 

e|-0-----------------------------0-----------------------------|
B|-2-----------------------------2-----------------------------|
G|-2-----------------------------2-----------------------------| 
D|-0-----------------------------2-----------------------------|
A|-0-----------------------------0-----------------------------|
E|-------------------------------------------------------------|


Guitar 1
      
e|-------------------------------------------------------------|
B|-------------------------------------------------------------|
G|-------------------------------------------------------------| 
D|-------------------------------------------------------------|
A|-5-5-5-5-5-5-5-5-5-5-5-5-5-5-5-5-4-4-4-4-4-4-4-4-4-4-4-4-4-4-|
E|-------------------------------------------------------------|

Guitar 2

e|-----------------------------0-0-0---------------------0-0-0-|
B|-x-x-x-x-x-x-x-x-x-x-x-x-x-x-x-x-x-x-x-x-x-x-x-x-x-x-x-x-x-x-|
G|-6-6-6-6-6-6-6-6/4-4-4-4-4-4-4-4-4/2-2-2-2-2-2-2-2-2-2-2-2-2-| 
D|-------------------------------------------------------------|
A|-------------------------------------------------------------|
E|-------------------------------------------------------------|


Guitar 3

  Asus4				 A 

e|-0-----------------------------0-----------------------------|
B|-2-----------------------------2-----------------------------|
G|-2-----------------------------2-----------------------------| 
D|-0-----------------------------2-----------------------------|
A|-0-----------------------------0-----------------------------|
E|-------------------------------------------------------------|

Play through all of the above twice and end on: 

Guitar 1

e|-------------------|
B|-------------------|
G|-------------------| 
D|-11-11-11-11-11-11-|
A|-------------------|
E|-------------------|


Guitar 2

e|------------------|
B|-x-x-x-x-x-x-x-x--|
G|-6-6-6-6-6-6-6-6--| 
D|------------------|
A|------------------|
E|------------------|

____________________________________________________


Verse 1 

The falling free on, it's turning me on

Guitar 1:

 Asus4		       A 
  
e|-0-------------------0---------------|
B|-2-------------------2---------------|
G|-2-------------------2---------------| 
D|-0-------------------2---------------|
A|-0-------------------0---------------|
E|-------------------------------------|

It drips on the street,  the sun cries from the heat


Guitar 1:
				   
  Dmaj7		       Dmaj9

e|-5--------------------0--------------|
B|-7--------------------7--------------|
G|-6--------------------6--------------| 
D|-7--------------------7--------------|
A|-5--------------------5--------------|
E|-------------------------------------|

                 I love feeling beat

Guitar 1:

 Asus4		       A 
  
e|-0-------------------0---------------|
B|-2-------------------2---------------|
G|-2-------------------2---------------| 
D|-0-------------------2---------------|
A|-0-------------------0---------------|
E|-------------------------------------|

Guitar 2:
 
e|-------------------------------------|
B|-10-----------------------10---------|
G|-----9---------------6h7-------7p6---| 
D|--------6----------------------------|
A|-------------------------------------|
E|-------------------------------------|


I'll kiss the lipstick on your teeth

Guitar 1:
	     Dmaj7		   
 
e|-----5--5--5--5------|
B|-----7--7--7--7------|
G|-----6--6--6--6------| 
D|-----7--7--7--7------|
A|-----5--5--5--5------|
E|---------------------|

Guitar 2:

e|---------------------|
B|-----10-10-10-10-----|
G|-----7--7--7--7------| 
D|---------------------|
A|---------------------|
E|---------------------|
____________________________________________________

Interlude 1:

Guitar 1

e|-------------------------------------------------------------|
B|-------------------------------------------------------------|
G|-------------------------------------------------------------| 
D|-------------------------------------------------------------|
A|-5-5-5-5-5-5-5-5-5-5-5-5-5-5-5-5-4-4-4-4-4-4-4-4-4-4-4-4-4-4-|
E|-------------------------------------------------------------|


Guitar 2

e|---------------------------------------0-0-0-----------0-0-0-|
B|-x-x-x-x-x-x-x-x-x-x-x-x-x-x-x-x-x-x-x-x-x-x-x-x-x-x-x-x-x-x-|
G|-6-6-6-6-6-6-6-6-9-9-9-9-9-9-9-9-9-9-9-9-9-9-7-7-7-7-7-7-7-7-| 
D|-------------------------------------------------------------|
A|-------------------------------------------------------------|  
E|-------------------------------------------------------------|    

Guitar 3

  Asus4				 A 

e|-0-----------------------------0-----------------------------|
B|-2-----------------------------2-----------------------------|
G|-2-----------------------------2-----------------------------| 
D|-0-----------------------------2-----------------------------|
A|-0-----------------------------0-----------------------------|
E|-------------------------------------------------------------|

Guitar 1
			      
e|-------------------------------------------------------------|
B|-------------------------------------------------------------|
G|-------------------------------------------------------------| 
D|-------------------------------------------------------------|
A|-5-5-5-5-5-5-5-5-5-5-5-5-5-5-5-5-4-4-4-4-4-4-4-4-4-4-4-4-4-4-|
E|-------------------------------------------------------------|


Guitar 2

e|-----------------------------0-0-0---------------------0-0-0-|
B|-x-x-x-x-x-x-x-x-x-x-x-x-x-x-x-x-x-x-x-x-x-x-x-x-x-x-x-x-x-x-|
G|-6-6-6-6-6-6-6-6/4-4-4-4-4-4-4-4-4/6-6-6-6-6-6-6-6-6-6-6-6-6-| 
D|-------------------------------------------------------------|
A|-------------------------------------------------------------|
E|-------------------------------------------------------------|


Guitar 3

  Asus4				 A 

e|-0-----------------------------0-----------------------------|
B|-2-----------------------------2-----------------------------|
G|-2-----------------------------2-----------------------------| 
D|-0-----------------------------2-----------------------------|
A|-0-----------------------------0-----------------------------|
E|-------------------------------------------------------------|
____________________________________________________

Verse 2 
Friends getting old, we all dig for gold

Guitar 1

e|--------------------------------------|
B|-x-x-x-x-x-x-x-x-x-x-x-x-x-x-x-x-x-x--|
G|-7-7-7-7-7-7-7-7-7-7-7-7-7-7-7-7-7-7--| 
D|--------------------------------------|
A|--------------------------------------|
E|--------------------------------------|

The crumbs and pieces 

Guitar 1

e|--------------------------------------|
B|-x-x-x-x-x-x-x-x-x-x-x-x-x-x-x-x-x-x--|
G|-7-7-7-7-7-7-7-7-7-7-7-7-7-7-7-7-7-7--| 
D|--------------------------------------|
A|--------------------------------------|
E|--------------------------------------|

Guitar 2
[ Tab from: http://www.guitartabs.cc/tabs/s/stills/of_montreal_tab.html ]
e|--14----14-14-14-14-14-14-------------|
B|--17b19-19-19-19-19-19-19--------10---|
G|----------------------------6h7-------| 
D|--------------------------------------|
A|--------------------------------------|
E|--------------------------------------|

The dead mess in the sink

Guitar 1

e|--------------------------------------|
B|-x-x-x-x-x-x-x-x-x-x-x-x-x-x-x-x-x-x--|
G|-7-7-7-7-7-7-7-7-7-7-7-7-7-7-7-7-7-7--| 
D|--------------------------------------|
A|--------------------------------------|
E|--------------------------------------|

Guitar 2

e|--------------------------------------|
B|-------10-10-10-10--10~~~-------------|
G|--7p6--6--6--6--6---7~~~~-------------| 
D|--------------------------------------|
A|--------------------------------------|
E|--------------------------------------|

Turning me on, Turning me on 

Guitar 1

e|--------------------------------------|
B|-x-x-x-x-x-x-x-x-x-x-x-x-x-x-x-x-x-x--|
G|-7-7-7-7-7-7-7-7-7-7-7-7-7-7-7-7-7-7--| 
D|--------------------------------------|
A|--------------------------------------|
E|--------------------------------------|

Guitar 2

e|---------------17-------17------17----17-----|
B|------------------17-------17-----17----17---|
G|---------------------14-------14----14----14-| 
D|---------------------------------------------|
A|---------------------------------------------|
E|---------------------------------------------|


We runnnnnnnnnnnnnnnnnnnnnnn

Guitar 2

e|--16-16-16-16-17-17-17-17-19-19-19-19-17-17-17-17-|
B|--17-17-17-17-17-17-17-17-17-17-17-17-17-17-17-17-|
G|--14-14-14-14-14-14-14-14-14-14-14-14-14-14-14-14-| 
D|--14-14-14-14-14-14-14-14-14-14-14-14-14-14-14-14-|
A|--------------------------------------------------|
E|--------------------------------------------------|

ohhhhhhhhhhh


Guitar 2

e|--16-16-16-16-16-16-16-16-16-16-16-16-16-16-16-16-|
B|--17-17-17-17-17-17-17-17-17-17-17-17-17-17-17-17-|
G|--14-14-14-14-14-14-14-14-14-14-14-14-14-14-14-14-| 
D|--14-14-14-14-14-14-14-14-14-14-14-14-14-14-14-14-|
A|--------------------------------------------------|
E|--------------------------------------------------|
____________________________________________________

Interlude 2:


Guitar 1

e|---------------------------------------------|
B|-x-x-x-x-x-x-x-x-x-x-x-x-x-x-x-x-10-10-10-10-|
G|-7-7-7-7-7-7-7-7-6-6-6-6-6-6-6-6-6--6--6--6--| (x2)
D|---------------------------------------------|
A|---------------------------------------------|
E|---------------------------------------------|

Guitar 2
	        Tremelo picked
  ...................................................
e|----------------------------------------------------|
B|-10-10-10-10-10-10-10-10-10-10-10-10-10-10-10-10-10-|
G|-9--9--9--9--9--9--9--9--9--9--9--9--9--9--9--9--9--| 
D|-7--7--7--7--7--7--7--7--7--7--7--7--7--7--7--7--7--|
A|----------------------------------------------------|
E|----------------------------------------------------|

____________________________________________________

Verse 3:



The night's so happy, the base drum heavy
The photo glossy, the people pretty
Turning me on
Turning me on
Turning me on

Guitar 1

 
e|----------------------------------------------------|
B|----------------------------------------------------|
G|----------------------------------------------------|
D|----------------------------------------------------|(x4)
A|-5-5-5-5-5-5-5-5-5-5-5-5-5-4-4-4-4-4-4-4-4-4-4-4-4--| 
E|----------------------------------------------------|


Guitar 2

  ...........hold note................................
e|-12~~~~~~~~~~~~~~~~~~~~~~~~~~~~~~~~~~~~~~~~~~~~~~~~~|
B|----------------------------------------------------|
G|----------------------------------------------------|
D|----------------------------------------------------| (x4)
A|----------------------------------------------------|
E|----------------------------------------------------|

END ON:


Turning me on

e|--------------------------|
B|--------------------------|
G|--------------------------|
D|--------------------------| 
A|-4-4-4-4-4-4-4-4-4-4-4-4--|
E|--------------------------|

Guitar 2

 
e|-17-17-17-17-17-17-17-17--|
B|--------------------------|
G|--------------------------|
D|--------------------------| 
A|--------------------------|
E|--------------------------|

We runnnnnnnnnnnnnnnnnnnnn

Guitar 2

e|--16-16-16-16-17-17-17-17-19-19-19-19-17-17-17-17-|
B|--17-17-17-17-17-17-17-17-17-17-17-17-17-17-17-17-|
G|--14-14-14-14-14-14-14-14-14-14-14-14-14-14-14-14-| 
D|--14-14-14-14-14-14-14-14-14-14-14-14-14-14-14-14-|
A|--------------------------------------------------|
E|--------------------------------------------------|

ohhhhhhhhhhh

Guitar 2

e|--16-16-16-16-16-16-16-16-16-16-16-16-16-16-16-16-|
B|--17-17-17-17-17-17-17-17-17-17-17-17-17-17-17-17-|
G|--14-14-14-14-14-14-14-14-14-14-14-14-14-14-14-14-| 
D|--14-14-14-14-14-14-14-14-14-14-14-14-14-14-14-14-|
A|--------------------------------------------------|
E|--------------------------------------------------|
____________________________________________________

Interlude 3:

oooooooooooohhhhhhhhhhhhhhhhhhhhhhhhhhhhhh

Guitar 1

e|-------------------------------------------------------------|
B|-x-x-x-x-x-x-x-x-x-x-x-x-x-x-x-x-x-x-x-x-x-x-x-x-x-x-x-x-x-x-|
G|-6-6-6-6-6-6-6-6-9-9-9-9-9-9-9-9-9-9-9-9-9-9-7-7-7-7-7-7-7-7-| 
D|-------------------------------------------------------------|
A|-------------------------------------------------------------|  
E|-------------------------------------------------------------|    

Guitar 2

e|-x--x--x--x--x--x--x--x--x--x--x--x--x--x--x--x--x--x--x--x--|
B|-14-14-14-14-14-17-17-17-17-17-17-17-17-17-17-15-15-15-15-15-|
G|-------------------------------------------------------------| 
D|-------------------------------------------------------------|
A|-------------------------------------------------------------|  
E|-------------------------------------------------------------|    

ooooooooooohhhhhhhhhhhhhhhhhhhhhhhhhhhhhh


Guitar 1    
  
e|-------------------------------------------------------------|
B|-x-x-x-x-x-x-x-x-x-x-x-x-x-x-x-x-x-x-x-x-x-x-x-x-x-x-x-x-x-x-|
G|-6-6-6-6-6-6-6-6-6-6-6-6/4-4-4-4-4-4-4-4-4/2-2-2-2-2-2-2-2-2-| 
D|-------------------------------------------------------------|
A|-------------------------------------------------------------|
E|-------------------------------------------------------------|

Guitar 2

e|-x--x--x--x--x--x--x--x--------------------------------------|
B|-14-14-14-14-14-14-14-14-x--x--x--x--x--x--x--x--x--x--x--x--|
G|-------------------------16-16-16-16-16-16-14-14-14-14-14-14-| 
D|-------------------------------------------------------------|
A|-------------------------------------------------------------|  
E|-------------------------------------------------------------|    

^^^^Repeat through above twice
____________________________________________________

Brakedown part 1
Guitar 2 (w/ muddy distortion)


 ..............tremelo picked......................................
e|--------------------------------------------12-12-12-12-12-12-12-|
B|--------------------------------------------x--x--x--x--x--x--x--|
G|--6-6-6-6-6-6-6-6-6-6--7-7-7-7-7-7-7-7-7-7--9--9--9--9--9--9--9--| 
D|--x-x-x-x-x-x-x-x-x-x--x-x-x-x-x-x-x-x-x-x--x--x--x--x--x--x--x--|
A|--4-4-4-4-4-4-4-4-4-4--5-5-5-5-5-5-5-5-5-5--7--7--7--7--7--7--7--|  
E|-----------------------------------------------------------------|    

**************************

Brakedown part 2

Guitar 1
e|---------------------------------------------|
B|-x-x-x-x-x-x-x-x-x-x-x-x-x-x-x-x-10-10-10-10-|
G|-7-7-7-7-7-7-7-7-6-6-6-6-6-6-6-6-6--6--6--6--| 
D|---------------------------------------------|
A|---------------------------------------------|
E|---------------------------------------------|

Guitar 2
 
e|---------------------------------------------|
B|---------------------------------------------|
G|-7-7--x-x--7-7--x-x--7-7--x-x--7-7--7-7-7-7--| 
D|-7-7--x-x--7-7--x-x--7-7--x-x--7-7--7-7-7-7--|
A|-5-5--x-x--5-5--x-x--5-5--x-x--5-5--5-5-5-5--|  
E|---------------------------------------------|    


Guitar 1

e|---------------------------------------------|
B|-x-x-x-x-x-x-x-x-x-x-x-x-x-x-x-x-10-10-10-10-|
G|-7-7-7-7-7-7-7-7-6-6-6-6-6-6-6-6-6--6--6--6--| 
D|---------------------------------------------|
A|---------------------------------------------|
E|---------------------------------------------|

Guitar 2
 
e|---------------------------------------------|
B|-10----10-10-15-15-13-13-10-10-10------------|
G|-12b14-14-14-14-14-14-14-14-14-14------------| 
D|---------------------------------------------|
A|---------------------------------------------|  
E|---------------------------------------------|    

Its hard to tell exact notes, repeat above pattern to fade.

The End

By Mark Bryce
Comments