Stills - Gender Bombs Chords & Tabs

 

Gender Bombs Chords & Tabs

Stills Chords & Tabs

Version: 2 Type: Tab 0 ratings
1 star 2 stars 3 stars 4 stars 5 stars
comments

Gender Bombs Tab

   
The Stills
Gender Bombs - from Logic will brake your heart

Tabbed by: Mark Bryce	25th November 2004

Email: Brycey81a@hotmail.com
Web: www.brycey.co.uk

_____________________________________________________

Tuning: EADGBe

Legend
	h    - hammer on
	p    - pull off
	/    - slide up
	\    - slide Down


Guitar 1: Rhythm Guitar
Guitar 2: Lead Guitar
Guitar 3: 2nd Lead Guitar

Intro:

Guitar 2:


e|--------------------------------------------------------------------|
B|--------------------------------------------------------------------|
G|---5---5---5---5---0---0---0---0------------------------------------|
D|-5---5---5---5---5---5---5---5---4---4---4---4-------5---5---5---5--|
A|-----------------------------------5---5---5---5-5/7---7---7---7----|
E|--------------------------------------------------------------------|


Guitar 1:

	C	   G	       D	   Em

e|------x----------x-----------2-----------x-------------|
B|------1----------0-----------3-----------0-------------|
G|------0----------0-----------2-----------0-------------|
D|------2----------0-----------0-----------2-------------|
A|------3----------2-----------------------2-------------|
E|-----------------3-----------------------0-------------|


Guitar 3:

e|----------------------------------------------------|
B|-----15----------12---------15-------17-\--12-------|
G|-----12----------9----------12-------14-\--9--------|
D|-----12----------9----------12-------14-\--9--------|
A|----------------------------------------------------|
E|----------------------------------------------------|


____________________________________________________


Verse 1



Brains, on a brick wall, when gender bombs would fall

The sorted way allotted phrases infiltrate your skull


Guitar 1:

	C	   G	       D	   Em

e|------x-x-x-x-x--x-x-x-x-x---2-2-2-2-2---x-x-x-x-x-----|
B|------1-1-1-1-1--0-0-0-0-0---3-3-3-3-3---0-0-0-0-0-----|
G|------0-0-0-0-0--0-0-0-0-0---2-2-2-2-2---0-0-0-0-0-----|
D|------2-2-2-2-2--0-0-0-0-0---0-0-0-0-0---2-2-2-2-2-----|
A|------3-3-3-3-3--2-2-2-2-2---------------2-2-2-2-2-----|
E|-----------------3-3-3-3-3---------------0-0-0-0-0-----|


Guitar 2:

e|----------------------------------------------------|
B|-----15----------12---------15-------17-\--12-------|
G|-----12----------9----------12-------14-\--9--------|
D|-----12----------9----------12-------14-\--9--------|
A|----------------------------------------------------|
E|----------------------------------------------------|


____________________________________________________


Verse 2




Images are strong, impulses are strong

And logic will break your heart forever, be brave

____________________________________________________


Pre-chrous


Massive suicide dreams

The fear of war and love

Guitar 1:

	C	   G	       D	   Em

e|------x---x------x---x-------2---2-------x---x---------|
B|------1---1------0---0-------3---3-------0---0---------|
G|------0---0------0---0-------2---2-------0---0---------|
D|------2---2------0---0-------0---0-------2---2---------|
A|------3---3------2---2-------------------2---2---------|
E|-----------------3---3-------------------0---0---------|

Guitar 2:


e|----0-----0-----0-----0-----0-----0-----0-----0-----|
B|------0-----0-----0-----0-----0-----0-----0-----0---|
G|--------0-----0-----0-----0-----0-----0-----0-----0-|
D|----------------------------------------------------|
A|----------------------------------------------------|
E|----------------------------------------------------|

__________________________________________________


chrous

The girl will scold you

The girl will...

Guitar 1:

	C	   G	       D	   Em

e|------x-x-x-x-x--x-x-x-x-x---2-2-2-2-2---x-x-x-x-x-----|
B|------1-1-1-1-1--0-0-0-0-0---3-3-3-3-3---0-0-0-0-0-----|
G|------0-0-0-0-0--0-0-0-0-0---2-2-2-2-2---0-0-0-0-0-----|
D|------2-2-2-2-2--0-0-0-0-0---0-0-0-0-0---2-2-2-2-2-----|
A|------3-3-3-3-3--2-2-2-2-2---------------2-2-2-2-2-----|
E|-----------------3-3-3-3-3---------------0-0-0-0-0-----|

Guitar 2:

[ Tab from: http://www.guitartabs.cc/tabs/s/stills/gender_bombs_tab_ver_2.html ]
e|--------------------------------------------------------------------|
B|--------------------------------------------------------------------|
G|---5---5---5---5---0---0---0---0------------------------------------|
D|-5---5---5---5---5---5---5---5---4---4---4---4-------5---5---5---5--|
A|-----------------------------------5---5---5---5-5/7---7---7---7----|
E|--------------------------------------------------------------------|


Guitar 3:

e|----------------------------------------------------|
B|-----15----------12---------15-------17-\--12-------|
G|-----12----------9----------12-------14-\--9--------|
D|-----12----------9----------12-------14-\--9--------|
A|----------------------------------------------------|
E|----------------------------------------------------|

____________________________________________________


verse 3

The carcass bleeding gaming for self ten loves in a row

Guitar 2:


e|---------------------------------------------------------------------|
B|--12-12-12-12--10-10-10-10--8-8-8-8--15------15-----15------15-------|
G|----------------------------------------0-------0------0-------0-----|
D|------------------------------------------12------12-----12-------12-|
A|---------------------------------------------------------------------|
E|---------------------------------------------------------------------|


The drunken Sunday evening's would just be in your way, no

Guitar 2:


e|----------------------------------------------------------------------|
B|--12-----12-----12----12----8-----8-----8-----8-----7-----7-----7-----|
G|-----0------0------0-----0----0-----0-----0-----0-----0-----0-----0---|
D|-------9------9------9----------5-----5-----5-----5-----4-----4-----4-|
A|----------------------------------------------------------------------|
E|----------------------------------------------------------------------|


____________________________________________________


Pre-chrous

Massive suicide dreams

Guitar 2:


e|-----------------------------------------------------|
B|-----12----12----12----12----12----8---8---8---8---8-|
G|---9-----9-----9-----9-----9-----0---0---0---0---0---|
D|-----------------------------------------------------|
A|-----------------------------------------------------|
E|-----------------------------------------------------|


The fear of war and love

Guitar 2:

e|---------------------------------------------------|
B|-----8----8----8----8----8----7----7----7----7-----|
G|---0----0----0----0----0----0----0----0----0-------|
D|---------------------------------------------------|
A|---------------------------------------------------|
E|---------------------------------------------------|

____________________________________________________


chrous

The girl will scold you

The girl will...

Guitar 1:

	C	   G	       D	   Em

e|------x-x-x-x-x--x-x-x-x-x---2-2-2-2-2---x-x-x-x-x-----|
B|------1-1-1-1-1--0-0-0-0-0---3-3-3-3-3---0-0-0-0-0-----|
G|------0-0-0-0-0--0-0-0-0-0---2-2-2-2-2---0-0-0-0-0-----|
D|------2-2-2-2-2--0-0-0-0-0---0-0-0-0-0---2-2-2-2-2-----|
A|------3-3-3-3-3--2-2-2-2-2---------------2-2-2-2-2-----|
E|-----------------3-3-3-3-3---------------0-0-0-0-0-----|


Guitar 2:


e|--------------------------------------------------------------------|
B|--------------------------------------------------------------------|
G|---5---5---5---5---0---0---0---0------------------------------------|
D|-5---5---5---5---5---5---5---5---4---4---4---4-------5---5---5---5--|
A|-----------------------------------5---5---5---5-5/7---7---7---7----|
E|--------------------------------------------------------------------|


Guitar 3:

e|----------------------------------------------------|
B|-----15----------12---------15-------17-\--12-------|
G|-----12----------9----------12-------14-\--9--------|
D|-----12----------9----------12-------14-\--9--------|
A|----------------------------------------------------|
E|----------------------------------------------------|


End on:

Guitar 2:

e|----------------|
B|----------------|
G|----------0~~---|
D|---5----5-------|
A|-7----7---------|
E|----------------|


The End

By Mark Bryce
Comments