Stillborn - Thor With The Hammer Chords & Tabs

 

Thor With The Hammer Chords & Tabs

Stillborn Chords & Tabs

Version: 1 Type: Tab 0 ratings
1 star 2 stars 3 stars 4 stars 5 stars
comments

Thor With The Hammer Tab

STILLBORN - THOR WITH THE HAMMER

Guitar 1 (Torstein)
                                                                                    3X 
E||----------------------------------------|----------------------------------------||
H||----------------------------------------|----------------------------------------||
G||*------9---10---9---10-9-7----10-9-7----|------9---10---9---10-9-7----7---------*||
D||*--7-7---7----7---7--------10--------9--|--7-7---7----7---7--------10---10-9-6--*||
A||----------------------------------------|----------------------------------------||
E||----------------------------------------|----------------------------------------||

----------------------------------------|---------------------------------------------|
----------------------------------------|---------------------------------------------|
------9---10---9---10-9-7----10-9-7-----|------9---10---9---10-9-7----7---------------|
--7-7---7----7---7--------10--------9---|--7-7---7----7---7--------10---10-9-10-9-7---|
----------------------------------------|---------------------------------------------|
----------------------------------------|---------------------------------------------|

Verse
-------------------------------------|-----------------------------------------------|
-------------------------------------|-----------------------------------------------|
-------------------------------------|-----------------------------------------------|
-------------------------------------|-----------------------------------------------|
--7-----7-7-7-3-----3/5-----5-5-5-7--|-7-7-7-7-7-----7-7-7-3-----3/5---5-5-5-7--7--7-|
--5-----5-5-5-1-----1/3-----3-3-3-5--|-5-5-5-5-5-----5-5-5-1-----1/3---3-3-3-5--5--5-|

Bridge
-------------------------------------|-------------------------------------|
-------------------------------------|-------------------------------------|
-------------------------------------|-------------------------------------|
-------------------------------------|-------------------------------------|
--3-3-3-3--5-5-5-5--7-7-7-7--5-5-5-5-|--3-3-3-3--5-5-5-5--7-7-7-7--5-5-5-5-|
--1-1-1-1--3-3-3-3--5-5-5-5--3-3-3-3-|--1-1-1-1--3-3-3-3--5-5-5-5--3-3-3-3-|

-------------------------------------|-------------------------------------|
-------------------------------------|-------------------------------------|
-------------------------------------|-------------------------------------|
-------------------------------------|-------------------------------------|
--3-3-3-3--5-5-5-5--7-7-7-7--5-5-5-5-|--3-3-3-3--5-5-5-5--7-7-7-7--7-7-7-7-|
--1-1-1-1--3-3-3-3--5-5-5-5--3-3-3-3-|--1-1-1-1--3-3-3-3--5-5-5-5--5-5-5-5-|
[ Tab from: http://www.guitartabs.cc/tabs/s/stillborn/thor_with_the_hammer_tab.html ]
Chorus                                                                   4x
|------------------------------------|-------------------------------------||
|------------------------------------|-------------------------------------||
|*-----------------------------------|------------------------------------*||
|*--5-5-5-5-5-5-5-5------------------|------------------------------------*||
|---3-3-3-3-3-3-3-3--5-5-5-5-5-5-5-5-|--7-7-7-7-7-7-7-7--8-7-5-7-5---------||
|--------------------3-3-3-3-3-3-3-3-|--5-5-5-5-5-5-5-5------------7-8-----||

Break
------------------------------------|-------------------------------------|
------------------------------------|-------------------------------------|
------------------------------------|-------------------------------------|
------------------------------------|-------------------------------------|
--7---------------------------------|--7--7-------------------------------|
--5---------------------------------|--5--5-------------------------------|

-------------------------------------|-------------------------------------|
-------------------------------------|-------------------------------------|
-------------------------------------|-------------------------------------|
-------------------------------------|-------------------------------------|
--7--7-7-7-7-7-7-7-7-7-7-7-7-7-7-7-7-|--7--7-7-7-7-7-7-7-7-7-7-7-7-7-7-7-7-|
--5--5-5-5-5-5-5-5-5-5-5-5-5-5-5-5-5-|--5--5-5-5-5-5-5-5-5-5-5-5-5-5-5-5-5-|

Solo
---------------------------------------------|--------------------------------------|
---------------------------------------------|--------------------------------------|
----9--9----9---12-10-9-12-10-9----------9-9-|----9--9------------------------------|
--7-10-10---10------------------12-10-12-----|--7-10-10---10-9-10-7-9-7----9----7-7-|
---------------------------------------------|--------------------------10---10-----|
---------------------------------------------|--------------------------------------|

---------------------------------------------|-----------------------------------------------|
---------------------------------------------|--------------------------------------------13-|
----9--9----9---12-10-9-12-10-9----------9-9-|----9--9------------------------------12-12----|
--7-10-10---10------------------12-10-12-----|--7-10-10---10-9-10-12-10-12-14-12-14----------|
---------------------------------------------|-----------------------------------------------|
---------------------------------------------|-----------------------------------------------|

Chorus                                                                     4x
|------------------------------------|-------------------------------------||
|------------------------------------|-------------------------------------||
|*-----------------------------------|------------------------------------*||
|*--5-5-5-5-5-5-5-5------------------|------------------------------------*||
|---3-3-3-3-3-3-3-3--5-5-5-5-5-5-5-5-|--7-7-7-7-7-7-7-7--8-7-5-7-5---------||
|--------------------3-3-3-3-3-3-3-3-|--5-5-5-5-5-5-5-5------------7-8-----||

                                                                           4x
------------------------------------|-------------------------------------||
------------------------------------|-------------------------------------||
*-----------------------------------|------------------------------------*||
*--7-7-7-7-7-7-7-7------------------|------------------------------------*||
---5-5-5-5-5-5-5-5--7-7-7-7-7-7-7-7-|--9-9-9-9-9-9-9-9--10-9-7-9-7--------||
--------------------5-5-5-5-5-5-5-5-|--7-7-7-7-7-7-7-7------------9-10----||

---------||
---------||
---------||
---------||
---------||
--10-----||
Comments