Stillborn - Nazg L Chords & Tabs

 

Nazg L Chords & Tabs

Stillborn Chords & Tabs

Version: 1 Type: Tab 0 ratings
1 star 2 stars 3 stars 4 stars 5 stars
comments

Nazg L Tab

STILLBORN - NAZGÜL

Guitar 1 (Torstein)
                                                                                                    
E||----------------------|---------------------|--------------------------|--------------------------||
H||----------------------|---------------------|--------------------------|--------------------------||
G||*---------------------|---------------------|--------------------------|-------------------------*||
D||*--7-7-7-7-7----------|---------------------|--------------------------|-------------------------*||
A||---5-5-5-5-5----------|--8-8-8-8-8----------|--10-10-10-10-10----------|--10-10-10-10-10----------||
E||----------------------|--6-6-6-6-6----------|--8--8--8--8--8-----------|--8--8--8--8--8-----------||

Melody 1                                                                                        4x  
---------------------|--------------------|----------------------|------------------------------||
---------------------|--------------------|----------------------|------------------------------||
*--------------------|--------------------|----------------------|-----------------------------*||
*--------------------|--------------------|----------------------|-----------------------------*||
---5-5-8-7---5-8-7---|------8-7-----8-7---|------10-8---7-10-8-7-|------10-8---7-10-13-12-10-8--||
-----------8-------8-|--6-6-----8-6-----8-|--8-8------8----------|--8-8------8------------------||

Verse
-----------------------------------|----------------------------------|--------------------------------------------------|
-----------------------------------|----------------------------------|--------------------------------------------------|
*----------------------------------|----------------------------------|--------------------------------------------------|
*--7-7-7-7-7-7-7-7-7-7-7-7-7-7-7-7-|----------------------------------|--------------------------------------------------|
---5-5-5-5-5-5-5-5-5-5-5-5-5-5-5-5-|--8-8-8-8-8-8-8-8-8-8-8-8-8-8-8-8-|--10-10-10-10-10-10-10-10-10-10-10-10-10-10-10-10-|
-----------------------------------|--6-6-6-6-6-6-6-6-6-6-6-6-6-6-6-6-|--8--8--8--8--8--8--8--8--8--8--8--8--8--8--8--8--|

                                  
-----------------------------------||
-----------------------------------||
----------------------------------*||
--7-7-7-7-7-7-7-7-7-7-7-7-7-7-7-7-*||
--5-5-5-5-5-5-5-5-5-5-5-5-5-5-5-5--||
-----------------------------------||

Bridge
----------------------------------|----------------------------------|
----------------------------------|----------------------------------|
----------------------------------|----------------------------------|
--5-5-5-5-5-5-5-5-5-5-5-5-5-5-5-5-|--7-7-7-7-7-7-7-7-7-7-7-7-7-7-7-7-|
--3-3-3-3-3-3-3-3-3-3-3-3-3-3-3-3-|--5-5-5-5-5-5-5-5-5-5-5-5-5-5-5-5-|
----------------------------------|----------------------------------|


----------------------------------|----------------------------------|
----------------------------------|----------------------------------|
----------------------------------|----------------------------------|
--5-5-5-5-5-5-5-5-5-5-5-5-5-5-5-5-|--7-7-7-7-7-7-7-------------------|
--3-3-3-3-3-3-3-3-3-3-3-3-3-3-3-3-|--5-5-5-5-5-5-5--8-8-8--10-10-10--|
----------------------------------|-----------------6-6-6--8--8--8---|

Chorus

-----------------------------------|-----------------------------------|
-----------------------------------|-----------------------------------|
-----------------------------------|-----------------------------------|
-------------------5-5-5-5-5-5-5-5-|--3-3-3-3-3-3-3-3--5-5-5-5-5-5-5-5-|
--3-3-3-3-3-3-3-3--3-3-3-3-3-3-3-3-|--1-1-1-1-1-1-1-1--3-3-3-3-3-3-3-3-|
--1-1-1-1-1-1-1-1------------------|-----------------------------------|


-----------------------------------|-----------------------------------|
-----------------------------------|-----------------------------------|
-----------------------------------|-----------------------------------|
-------------------5-5-5-5-5-5-5-5-|--3-3-3-3-3-3-3-3--5-5-5-5-5-5-5-5-|
--3-3-3-3-3-3-3-3--3-3-3-3-3-3-3-3-|--1-1-1-1-1-1-1-1--3-3-3-3-3-3-3-3-|
--1-1-1-1-1-1-1-1------------------|-----------------------------------|


-------------------------------------------|-------------------------------------------|
-------------------------------------------|-------------------------------------------|
-------------------------------------------|-------------------------------------------|
--7-7-7-7-7-7-7-7--------------------------|-------------------10-10-10-10-10-10-10-10-|
--5-5-5-5-5-5-5-5--10-10-10-10-10-10-10-10-|--8-8-8-8-8-8-8-8--8--8--8--8--8--8--8--8--|
-------------------8--8--8--8--8--8--8--8--|--6-6-6-6-6-6-6-6--------------------------|


-----------------------------------|------------------|
-----------------------------------|------------------|
-----------------------------------|------------------|
--7-7-7-7-7-7-7-7------------------|--7-7-7-7-7--5--7-|
--5-5-5-5-5-5-5-5--7-7-7-7-7-7-7-7-|--5-5-5-5-5--3--5-|
-------------------5-5-5-5-5-5-5-5-|------------------|

Melody 1
---------------------|--------------------|----------------------|------------------------------||
---------------------|--------------------|----------------------|------------------------------||
*--------------------|--------------------|----------------------|-----------------------------*||
*--------------------|--------------------|----------------------|-----------------------------*||
---5-5-8-7---5-8-7---|------8-7-----8-7---|------10-8---7-10-8-7-|------10-8---7-10-13-12-10-8--||
-----------8-------8-|--6-6-----8-6-----8-|--8-8------8----------|--8-8------8------------------||

Verse
----------------------------------|----------------------------------|--------------------------------------------------|
----------------------------------|----------------------------------|--------------------------------------------------|
----------------------------------|----------------------------------|--------------------------------------------------|
--7-7-7-7-7-7-7-7-7-7-7-7-7-7-7-7-|----------------------------------|--------------------------------------------------|
--5-5-5-5-5-5-5-5-5-5-5-5-5-5-5-5-|--8-8-8-8-8-8-8-8-8-8-8-8-8-8-8-8-|--10-10-10-10-10-10-10-10-10-10-10-10-10-10-10-10-|
----------------------------------|--6-6-6-6-6-6-6-6-6-6-6-6-6-6-6-6-|--8--8--8--8--8--8--8--8--8--8--8--8--8--8--8--8--|

                                  
----------------------------------|
----------------------------------|
----------------------------------|
--7-7-7-7-7-7-7-7-7-7-7-7-7-7-7-7-|
--5-5-5-5-5-5-5-5-5-5-5-5-5-5-5-5-|
----------------------------------|

Bridge
----------------------------------|----------------------------------|
----------------------------------|----------------------------------|
----------------------------------|----------------------------------|
--5-5-5-5-5-5-5-5-5-5-5-5-5-5-5-5-|--7-7-7-7-7-7-7-7-7-7-7-7-7-7-7-7-|
--3-3-3-3-3-3-3-3-3-3-3-3-3-3-3-3-|--5-5-5-5-5-5-5-5-5-5-5-5-5-5-5-5-|
----------------------------------|----------------------------------|

[ Tab from: http://www.guitartabs.cc/tabs/s/stillborn/nazg_l_tab.html ]
----------------------------------|----------------------------------|
----------------------------------|----------------------------------|
----------------------------------|----------------------------------|
--5-5-5-5-5-5-5-5-5-5-5-5-5-5-5-5-|--7-7-7-7-7-7-7-------------------|
--3-3-3-3-3-3-3-3-3-3-3-3-3-3-3-3-|--5-5-5-5-5-5-5--8-8-8--10-10-10--|
----------------------------------|-----------------6-6-6--8--8--8---|

Chorus
-----------------------------------|-----------------------------------|
-----------------------------------|-----------------------------------|
-----------------------------------|-----------------------------------|
-------------------5-5-5-5-5-5-5-5-|--3-3-3-3-3-3-3-3--5-5-5-5-5-5-5-5-|
--3-3-3-3-3-3-3-3--3-3-3-3-3-3-3-3-|--1-1-1-1-1-1-1-1--3-3-3-3-3-3-3-3-|
--1-1-1-1-1-1-1-1------------------|-----------------------------------|


-----------------------------------|-----------------------------------|
-----------------------------------|-----------------------------------|
-----------------------------------|-----------------------------------|
-------------------5-5-5-5-5-5-5-5-|--3-3-3-3-3-3-3-3--5-5-5-5-5-5-5-5-|
--3-3-3-3-3-3-3-3--3-3-3-3-3-3-3-3-|--1-1-1-1-1-1-1-1--3-3-3-3-3-3-3-3-|
--1-1-1-1-1-1-1-1------------------|-----------------------------------|


-------------------------------------------|-------------------------------------------|
-------------------------------------------|-------------------------------------------|
-------------------------------------------|-------------------------------------------|
--7-7-7-7-7-7-7-7--------------------------|-------------------10-10-10-10-10-10-10-10-|
--5-5-5-5-5-5-5-5--10-10-10-10-10-10-10-10-|--8-8-8-8-8-8-8-8--8--8--8--8--8--8--8--8--|
-------------------8--8--8--8--8--8--8--8--|--6-6-6-6-6-6-6-6--------------------------|


-----------------------------------|------------------|
-----------------------------------|------------------|
-----------------------------------|------------------|
--7-7-7-7-7-7-7-7------------------|--7-7-7-7-7--5--7-|
--5-5-5-5-5-5-5-5--7-7-7-7-7-7-7-7-|--5-5-5-5-5--3--5-|
-------------------5-5-5-5-5-5-5-5-|------------------|

Solo 1
--10-10-13-12----10-12-13-15-|--17-17-17-17-15-15-15-15h12-13p12-|--12-13p12-15-12-13-12-15-12-13-12-15-12-|--12-13p12-15-12-13-12-15-12-13-12-15-12-|
--------------13-------------|-----------------------------------|-----------------------------------------|-----------------------------------------|
-----------------------------|-----------------------------------|-----------------------------------------|-----------------------------------------|
-----------------------------|-----------------------------------|-----------------------------------------|-----------------------------------------|
-----------------------------|-----------------------------------|-----------------------------------------|-----------------------------------------|
-----------------------------|-----------------------------------|-----------------------------------------|-----------------------------------------|


--10-10-13-10-10-13-10-10-13-10-10-13-10-10-13-10-|--10-10-15-10-10-15-10-10-15-10-10-15-10-10-15-10-|
--------------------------------------------------|--------------------------------------------------|
--------------------------------------------------|--------------------------------------------------|
--------------------------------------------------|--------------------------------------------------|
--------------------------------------------------|--------------------------------------------------|
--------------------------------------------------|--------------------------------------------------|


--12-12-15-12-12-15-12-12-15-12-12-15-12-12-15-12-|--17-17-20-17-17-20-17-17-20-17-17-20-17-17-20-17-|
--------------------------------------------------|--------------------------------------------------|
--------------------------------------------------|--------------------------------------------------|
--------------------------------------------------|--------------------------------------------------|
--------------------------------------------------|--------------------------------------------------|
--------------------------------------------------|--------------------------------------------------|

Solo 2
------------------------------|-----------------------------|------------------------------------------|-------------------------------------------||
------------------------------|-----------------------------|------------------------------------------|-------------------------------------------||
*-----------------------------|-----------------------------|------------------------------------------|------------------------------------------*||
*--7-7-7-7-7--7-7-7-7-7-7-7-7-|-----------------------------|------------------------------------------|------------------------------------------*||
---5-5-5-5-5--5-5-5-5-5-5-5-5-|--8-8-8-8-8--8-8-8-8-8-8-8-8-|--10-10-10-10-10--10-10-10-10-10-10-10-10-|--10-10-10-10-10--10-10-10-10-10-10-10-10--||
------------------------------|--6-6-6-6-6--6-6-6-6-6-6-6-6-|--8--8--8--8--8---8--8--8--8--8--8--8--8--|--8--8--8--8--8---8--8--8--8--8--8--8--8---||

Bridge
----------------------------------|----------------------------------|
----------------------------------|----------------------------------|
----------------------------------|----------------------------------|
--5-5-5-5-5-5-5-5-5-5-5-5-5-5-5-5-|--7-7-7-7-7-7-7-7-7-7-7-7-7-7-7-7-|
--3-3-3-3-3-3-3-3-3-3-3-3-3-3-3-3-|--5-5-5-5-5-5-5-5-5-5-5-5-5-5-5-5-|
----------------------------------|----------------------------------|


----------------------------------|----------------------------------|
----------------------------------|----------------------------------|
----------------------------------|----------------------------------|
--5-5-5-5-5-5-5-5-5-5-5-5-5-5-5-5-|--7-7-7-7-7-7-7-------------------|
--3-3-3-3-3-3-3-3-3-3-3-3-3-3-3-3-|--5-5-5-5-5-5-5--8-8-8--10-10-10--|
----------------------------------|-----------------6-6-6--8--8--8---|

Chorus
-----------------------------------|-----------------------------------|
-----------------------------------|-----------------------------------|
-----------------------------------|-----------------------------------|
-------------------5-5-5-5-5-5-5-5-|--3-3-3-3-3-3-3-3--5-5-5-5-5-5-5-5-|
--3-3-3-3-3-3-3-3--3-3-3-3-3-3-3-3-|--1-1-1-1-1-1-1-1--3-3-3-3-3-3-3-3-|
--1-1-1-1-1-1-1-1------------------|-----------------------------------|


-----------------------------------|-----------------------------------|
-----------------------------------|-----------------------------------|
-----------------------------------|-----------------------------------|
-------------------5-5-5-5-5-5-5-5-|--3-3-3-3-3-3-3-3--5-5-5-5-5-5-5-5-|
--3-3-3-3-3-3-3-3--3-3-3-3-3-3-3-3-|--1-1-1-1-1-1-1-1--3-3-3-3-3-3-3-3-|
--1-1-1-1-1-1-1-1------------------|-----------------------------------|


-------------------------------------------|-------------------------------------------|
-------------------------------------------|-------------------------------------------|
-------------------------------------------|-------------------------------------------|
--7-7-7-7-7-7-7-7--------------------------|-------------------10-10-10-10-10-10-10-10-|
--5-5-5-5-5-5-5-5--10-10-10-10-10-10-10-10-|--8-8-8-8-8-8-8-8--8--8--8--8--8--8--8--8--|
-------------------8--8--8--8--8--8--8--8--|--6-6-6-6-6-6-6-6--------------------------|


------------------------------------|-------------------||
------------------------------------|-------------------||
*-----------------------------------|------------------*||
*--7-7-7-7-7-7-7-7------------------|--7-7-7-7-7--5--7-*||
---5-5-5-5-5-5-5-5--7-7-7-7-7-7-7-7-|--5-5-5-5-5--3--5--||
--------------------5-5-5-5-5-5-5-5-|-------------------||





Comments