Stillborn - Light The Diamond Chords & Tabs

 

Light The Diamond Chords & Tabs

Stillborn Chords & Tabs

Version: 1 Type: Tab 0 ratings
1 star 2 stars 3 stars 4 stars 5 stars
comments

Light The Diamond Tab

STILLBORN - LIGHT THE DIAMOND

Guitar 1 (Torstein)
  
Verse                                                    6X                                           
E||-----------------------------|------------------------||
H||-----------------------------|------------------------||
G||*----------------------------|-----------------------*||
D||*--9-9-9-9-9-----------------|-----------------------*||
A||---7-7-7-7-7--10-10-10-10-10-|--9-9-9-9-9--7-7-7-7-7--||
E||--------------8--8--8--8--8--|--7-7-7-7-7--5-5-5-5-5--||


Bridge 1
-----------------------|--------------------------|-----------------------|------------------------|
-----------------------|--------------------------|-----------------------|------------------------|
-----------------------|--------------------------|-----------------------|------------------------|
--5-5-5-5-5------------|-------------9-9-9--7-7-7-|--5-5-5-5-5------------|------------------------|
--3-3-3-3-3--5-5-5-5-5-|--9-9-9-9-9--7-7-7--5-5-5-|--3-3-3-3-3--5-5-5-5-5-|--9-9-9-9-9--9----------|
-------------3-3-3-3-3-|--7-7-7-7-7---------------|-------------3-3-3-3-3-|--7-7-7-7-7--7----------|

Chorus                                             4x
------------------------|--------------------------||
------------------------|-------------5-3-5-3------||
*-----------------------|-------------5-4-5-4-5-4-*||
*-------------5-5-5-5-5-|--7-7-7-7-7----------7-5-*||
---5-5-5-5-5--3-3-3-3-3-|--5-5-5-5-5---------------||
---3-3-3-3-3------------|--------------------------||
[ Tab from: http://www.guitartabs.cc/tabs/s/stillborn/light_the_diamond_tab.html ]
Bridge 2                                         3x
------------------------|------------------------||-----------------------|----------------------|
------------------------|------------------------||-----------------------|----------------------|
*-----------------------|-----------------------*||-----------------------|----------------------|
*--5-5-5-5-5--5-5-5-5-5-|-----------------------*||--7-7-7-7-7--5-5-5-5-5-|----------------------|
---3-3-3-3-3--3-3-3-3-3-|--5-5-5-5-5--5-5-5-5-5--||--5-5-5-5-5--3-3-3-3-3-|--5-5-5-5-5--5--------|
------------------------|--3-3-3-3-3--3-3-3-3-3--||-----------------------|--3-3-3-3-3--3--------|

Solo                                               
------------------------|------------------------------||
------------------------|------------------------------||
*-----------------------|-----------------------------*||
*-------------5-5-5-5-5-|--7-7-7-7-7------------------*||
---5-5-5-5-5--3-3-3-3-3-|--5-5-5-5-5--10-10-10--9-9-9--||
---3-3-3-3-3------------|-------------8--8--8---7-7-7--||

Bridge 2                                         3x
------------------------|------------------------||-----------------------|----------------------|
------------------------|------------------------||-----------------------|----------------------|
*-----------------------|-----------------------*||-----------------------|----------------------|
*--5-5-5-5-5--5-5-5-5-5-|-----------------------*||--7-7-7-7-7--5-5-5-5-5-|----------------------|
---3-3-3-3-3--3-3-3-3-3-|--5-5-5-5-5--5-5-5-5-5--||--5-5-5-5-5--3-3-3-3-3-|--5-5-5-5-5--5--------|
------------------------|--3-3-3-3-3--3-3-3-3-3--||-----------------------|--3-3-3-3-3--3--------|






Comments