Stillborn - Falling Kingdom Chords & Tabs

 

Falling Kingdom Chords & Tabs

Stillborn Chords & Tabs

Version: 1 Type: Tab 0 ratings
1 star 2 stars 3 stars 4 stars 5 stars
comments

Falling Kingdom Tab

STILLBORN - FALLING KINGDOM

Guitar 1 (Torstein)
                                                                                                    
E||----------------------------------------------------------|
H||----------------------------------------------------------|
G||----------------------------------------------------------|
D||----------------16-16-16-16--15-15-15-15--13-13-13-13--11-|
A||----------------------------------------------------------|
E||----------------------------------------------------------|


----------------------------------------------------------|
----------------------------------------------------------|
----------------------------------------------------------|
----------------16-16-16-16--15-15-15-15--13-13-13-13--11-|
----------------------------------------------------------|
----------------------------------------------------------|


----------------------------------------------------------|
----------------------------------------------------------|
----------------------------------------------------------|
----------------18-18-18-18--16-16-16-16--15-15-15-15--13-|
----------------------------------------------------------|
----------------------------------------------------------|


----------------------------------------------------------|
----------------------------------------------------------|
----------------------------------------------------------|
----------------16-16-16-16--15-15-15-15--13-13-13-13--11-|
----------------------------------------------------------|
----------------------------------------------------------|


----------------------------------------------------------|
----------------------------------------------------------|
----------------------------------------------------------|
----------------16-16-16-16--15-15-15-15--13-13-13-13--11-|
----------------------------------------------------------|
----------------------------------------------------------|


----------------------------------------------------------|
----------------------------------------------------------|
----------------------------------------------------------|
----------------16-16-16-16--15-15-15-15--13-13-13-13--11-|
----------------------------------------------------------|
----------------------------------------------------------|


----------------------------------------------------------|
----------------------------------------------------------|
----------------------------------------------------------|
----------------18-18-18-18--16-16-16-16--15-15-15-15--13-|
----------------------------------------------------------|
----------------------------------------------------------|


-----------------------------------------------------|
-----------------------------------------------------|
-----------------------------------------------------|
--------------------------------------16--15--13--11-|
-----------------------------------------------------|
-----------------------------------------------------|

Verse                                                                                            3x
------------------------------------------------|------------------------------------------------||
------------------------------------------------|------------------------------------------------||
*-----------------------------------------------|-----------------------------------------------*||
*-----------------------------------------------|-----------------------------------------------*||
---8-8-8-8-8--8-8-8-8--8--8-8-8-8-8--8-8-8-8--8-|--6-6-6-6-6--6-6-6-6--6--6-6-6-6-6--6-6-6-6--6--||
---6-6-6-6-6--6-6-6-6--6--6-6-6-6-6--6-6-6-6--6-|--4-4-4-4-4--4-4-4-4--4--4-4-4-4-4--4-4-4-4--4--||

[ Tab from: http://www.guitartabs.cc/tabs/s/stillborn/falling_kingdom_tab.html ]
-----------------------------------------------|--------------------------------------|
-----------------------------------------------|--------------------------------------|
-----------------------------------------------|--------------------------------------|
-----------------------------------------------|-------------------------4-4-4--6-6-6-|
--8-8-8-8-8--8-8-8-8--8--8-8-8-8-8--8-8-8-8--8-|--6-6-6-6-6--6-6-6-6--6--2-2-2--4-4-4-|
--6-6-6-6-6--6-6-6-6--6--6-6-6-6-6--6-6-6-6--6-|--4-4-4-4-4--4-4-4-4--4---------------|

Chorus
----------------------------------|--------------------------------||
----------------------------------|--------------------------------||
*---------------------------------|-------------------------------*||
*-----------10-8-6-----------6--8-|-----------10-8-6--------------*||
---8--8--8--8--6-4--8--8--8--4--6-|--8--8--8--8--6-4--8--8--6---6--||
---6--6--6----------6--6--6-------|--6--6--6----------6--6--4---4--||

Verse                                                                                            3x
------------------------------------------------|------------------------------------------------||
------------------------------------------------|------------------------------------------------||
*-----------------------------------------------|-----------------------------------------------*||
*-----------------------------------------------|-----------------------------------------------*||
---8-8-8-8-8--8-8-8-8--8--8-8-8-8-8--8-8-8-8--8-|--6-6-6-6-6--6-6-6-6--6--6-6-6-6-6--6-6-6-6--6--||
---6-6-6-6-6--6-6-6-6--6--6-6-6-6-6--6-6-6-6--6-|--4-4-4-4-4--4-4-4-4--4--4-4-4-4-4--4-4-4-4--4--||


-----------------------------------------------|--------------------------------------|
-----------------------------------------------|--------------------------------------|
-----------------------------------------------|--------------------------------------|
-----------------------------------------------|-------------------------4-4-4--6-6-6-|
--8-8-8-8-8--8-8-8-8--8--8-8-8-8-8--8-8-8-8--8-|--6-6-6-6-6--6-6-6-6--6--2-2-2--4-4-4-|
--6-6-6-6-6--6-6-6-6--6--6-6-6-6-6--6-6-6-6--6-|--4-4-4-4-4--4-4-4-4--4---------------|

Chorus
----------------------------------|--------------------------------||
----------------------------------|--------------------------------||
*---------------------------------|-------------------------------*||
*-----------10-8-6-----------6--8-|-----------10-8-6--------------*||
---8--8--8--8--6-4--8--8--8--4--6-|--8--8--8--8--6-4--8--8--6---6--||
---6--6--6----------6--6--6-------|--6--6--6----------6--6--4---4--||

Bridge
------------------------------------|--------------------------------||
------------------------------------|--------------------------------||
*-----------------------------------|-------------------------------*||
*-----------------------------------|-------------------------------*||
---3-3-3-3-3-3-3-3--4-4-4-4-4-4-4-4-|--6-6-6-6-6-6-6-6--6------------||
---1-1-1-1-1-1-1-1--2-2-2-2-2-2-2-2-|--4-4-4-4-4-4-4-4--4------------||

Solo
-----------------------------------|----------------------------------|
-----------------------------------|----------------------------------|
*----------------------------------|----------------------------------|
*----------------------------------|----------------------------------|
---8-8-8-8-8-8-8-8-8-8-8-8-8-8-8-8-|--6-6-6-6-6-6-6-6-6-6-6-6-6-6-6-6-|
---6-6-6-6-6-6-6-6-6-6-6-6-6-6-6-6-|--4-4-4-4-4-4-4-4-4-4-4-4-4-4-4-4-|


----------------------------------|-----------------------------------||
----------------------------------|-----------------------------------||
----------------------------------|----------------------------------*||
----------------------------------|----------------------------------*||
--3-3-3-3-3-3-3-3-3-3-3-3-3-3-3-3-|--4-4-4-4-4-4-4-4-4-4-4-4-4-4-4-4--||
--1-1-1-1-1-1-1-1-1-1-1-1-1-1-1-1-|--2-2-2-2-2-2-2-2-2-2-2-2-2-2-2-2--||

Chorus
----------------------------------|--------------------------------||
----------------------------------|--------------------------------||
*---------------------------------|-------------------------------*||
*-----------10-8-6-----------6--8-|-----------10-8-6--------------*||
---8--8--8--8--6-4--8--8--8--4--6-|--8--8--8--8--6-4--8--8--6---6--||
---6--6--6----------6--6--6-------|--6--6--6----------6--6--4---4--||






Comments