Still - Lonely Chords & Tabs

 

Lonely Chords & Tabs

Still Chords & Tabs

Version: 1 Type: Tab 0 ratings
1 star 2 stars 3 stars 4 stars 5 stars
comments

Lonely Tab

   
This is correct.
Band:Still

This is a new band from summerville South Carolina
intro
(drop D)
D-2---2--0---0--------------------
A--2-2-2--2-2-2--3---3--2----0----
D---2------2------2-2-2--2-2--2-2-    X2
G------------------0------0----0--
B---------------------------------
e---------------------------------
Verse

D-2---2--0---0--------------------
A--2-2-2--2-2-2--3---3--2----0----
D---2------2------2-2-2--2-2--2-2-    X4
G------------------0------0----0--
B---------------------------------
e---------------------------------
[ Tab from: http://www.guitartabs.cc/tabs/s/still/lonely_tab.html ]
Chorus (drop D Still)

E, G, A, D, D#       X4

Verse                     / is a slide (used in bridge)

D-2---2--0---0--------------------
A--2-2-2--2-2-2--3---3--2----0----
D---2------2------2-2-2--2-2--2-2-    X4
G------------------0------0----0--
B---------------------------------
e---------------------------------

Chorus

E, G, A, D, D#       X4

Bridge

E/G/A/D, D#   X2

Outro

E, D, G, D, D# X2
Comments