Stevie Wonder - Sir Duke Chords & Tabs

 

Sir Duke Chords & Tabs

Stevie Wonder Chords & Tabs

Version: 1 Type: Tab 0 ratings
1 star 2 stars 3 stars 4 stars 5 stars
comments

Sir Duke Tab

   
  Intro X 2
  B           G#m                    G                  F#
e|---------7---------------------4------------------3-3p2--------------------|
B|------7-----------------4p3h4---------------3p2h3--------------------------|
G|---8-------------4p3h4----------------4p3h4--------------------------------|
D|-9----------6-6-------------------5-5--------------------------------------|
A|---------------------------------------------------------------------------|
E|---------------------------------------------------------------------------|
[ Tab from: http://www.guitartabs.cc/tabs/s/stevie_wonder/sir_duke_tab.html ]
e|---------------------------------------------------------------------------|
B|---------------------------------------------------------------------------|
G|---------------------------------------------------------------------------|
D|---4-4-6-8-----------------------------------------------------------------|
A|---------------------------------------------------------------------------|
E|---------------------------------------------------------------------------|

Verse Type 1
B                                 G#m          G                                    F#
Music is a language within itself, one that we can all understand
B                 G#m        G                          F#                    F
Equal opportunity for everyone to sing and clap your hands

Verse type 2
(I don't remember the lyrics for the next verse part but here are the chords)

E9 Eb9 D9 C#9 D9 Eb9 E9
E9 Eb9 D9 C#9 D9 Eb9 E9 F9 F#9

Chorus
Same chords are verse type 1, different strumming pattern


Chord Chart
B        799877
G#m   466444
G        355433
F#       244322
F         133211
E9      X7677X
Eb9    X6566X
D9      X5455X
C#9    X4344X
F9      X8788X
F#9   X9899X
Comments