Stevie Wonder - Sir Duke Chords & Tabs

 

Sir Duke Chords & Tabs

Stevie Wonder Chords & Tabs

Version: 1 Type: Bass Tab 0 ratings
1 star 2 stars 3 stars 4 stars 5 stars
comments

Sir Duke Bass Tab

Artist: Stevie Wonder
Song: Sir Duke
Album: Songs In The Key Of Life (plus any Stevie compilation worth its 
salt!)
Bassist: Nathan Watts
tabbed by: Julian Wathen / email: julianwathen@hotmail.com
http://www.basstabarchive.com/

   intro (unison)                                    1st repeat just play F# 
once
G||----------------|----------------|----------------|----------------|
D||o-----------9---|------------6---|------------5---|4-424----42-1--o|
A||o---6---9-------|--------6-56----|----2-2-5-5-----|--------------4o|
E||7---------------|4-4-7-67--------|3-3-------------|----------------|

   verse
G||----------------|----------------|----------------|----------------|
D||o-------9---9-9-|6-------6-------|5-------5-------|4-------x42-1--o|
A||o---9--------9--|----6-------6---|----5-------5---|----4---------4o|
E||7---------------|----------------|----------------|----------------|

   bridge
G||----------------|----------------|----------------|----------------|
D||----------------|----------------|----------------|----------------|
A||7-7-6-6-5-5-4-4-|5-5-6--67------7|7-7-6-6-5-5-4-4-|5-5-6--789------|
E||----------------|----------------|----------------|----------------|

[ Tab from: http://www.guitartabs.cc/tabs/s/stevie_wonder/sir_duke_btab.html ]
   chorus
G||----------------|-------10---1010|--------9---9---|----------------|
D||o-------9---9-9-|---10--------10-|----9---------9-|---------------o|
A||o---9--------9--|8---------------|7---------------|----11--9------o|
E||7---------------|----------------|----------------|9-----------119-|

   horn break (unison)
   |   |   |   |    |   |   |   |    |   |     | |      |     |   |
G||-----------1----|--------4-678---|13--11------------|---------------|
D||-------1----4---|------46--------|---13--1113-119---|11-9--9--------|
A||2-----2-4-4-----|2-456-----------|---------------119|----11---------|
E||--------------24|----------------|------------------|---------------|

   |    |    |   |   |   |   |   |    |   |   |   |    |   |
G||8----------------|----------------|------1414--1-1-|----------------|
D||--119119--9------|4-4-------------|----14-------4--|414-44----------|
A||--------11-11911-|-6--6464242-----|--24------------|----------------|
E||-----------------|------------4-2-|24--------------|----------------|

Listen to the song for arrangement plus embellishments (i.e. the verse and 
chorus riffs
are played with slight variations each time around).  I have endeavoured to 
indicate
the on-beat in some of the horn unison section, but I'm pretty sure these 
aren't quite
correct. I'm not very good at counting to four!
Enjoy!
(and if loads of covers bands start playing this around North London - you 
owe me a pint!)
Comments