Stevie Wonder - Isnt She Lovely Chords & Tabs

 

Isnt She Lovely Chords & Tabs

Stevie Wonder Chords & Tabs

Version: 2 Type: Chords

Isnt She Lovely Chords

   
Isn't she lovely -Stevie Wonder


[A]
Isn't she lovely         Isn't she wonder-full
 C#m7(11)        F#9             B9              E               
|---=---=---=---+---=---=---=---+---=---=---=---+---=---=---=---|
Isn't she precious        Less than one minute old
 C#m7(11)        F#9             B9              E               
|---=---=---=---+---=---=---=---+---=---=---=---+---=---=---=---|


[B]
I never thought through love we'd be  Making one as lovely as she
 AMaj7           G#7(b13)        C#m7            F#7(13)         
|---=---=---=---+---=---=---=---+---=---=---=---+---=---=---=---|
[ Tab from: http://www.guitartabs.cc/tabs/s/stevie_wonder/isnt_she_lovely_crd_ver_2.html ]
But isn't she lovely made from love
 B9(11)                          E                         (G#7) 
|---=---=---=---+---=---=---=---+---=---=---=---+---=---=---=---|


  C#m7(11)  F#9     B9       E    
e:---X---|---X---|---X---|---X---|
B:---7---|---9---|---7---|---9---|
G:---9---|---9---|---6---|---9---|
D:---9---|---8---|---7---|---9---|
A:---X---|---9---|--(6)--|---7---|
E:---9---|---X---|---7---|---X---|

   AMaj7  G#7(b13)  C#m7   F#7(13) B9(11)    E    
e:---X---|---X---|---X---|---X---|---X---|---X---|
B:---5---|---5---|---5---|---4---|---5---|---9---|
G:---6---|---5---|---4---|---3---|---6---|---9---|
D:---6---|---4---|---2---|---2---|---7---|---9---|
A:---X---|---X---|---4---|---X---|---X---|---7---|
E:---5---|---4---|---X---|---2---|---7---|---X---|

                      E   
e:-----|-----------|--X--|
B:-----|-----------|--9--|
G:-----|--------6-9|--9--|
D:-----|----6-9----|--9--|
A:-----|7-9--------|--7--|
E:--7-9|-----------|--X--|