Stevie Ray Vaughan - Voodoo Chile Chords & Tabs

 

Voodoo Chile Chords & Tabs

Stevie Ray Vaughan Chords & Tabs

Version: 1 Type: Bass Tab 0 ratings
1 star 2 stars 3 stars 4 stars 5 stars
comments

Voodoo Chile Bass Tab

   
Stevie Ray Vaughn
Voodoo Chile

Tabbed by Luke 
Here's one of stevies best songs.The most important thing is to play with the 
chords....This is a very basic transcription (its still right, but it is 
basic)

Start in E and hang on to it for nine million yeaRs 
    MAIN RIFF
   E
G:-------------------------------------------------
D:-------------------------------------------------
A:----7-77--77--567--------------------------------
E:---0---------------------------------------------

Then it shifts from e to E/D
     E                     D
G:-------------------------------------------------
D:-------------------------------------------------
A:----7----7---------------5-----5-----------------
E:-------------------------------------------------
[ Tab from: http://www.guitartabs.cc/tabs/s/stevie_ray_vaughan/voodoo_chile_btab.html ]
next measure is A/C#
        A                  c#
G:-------------------------------------------------
D:-------------------------------------------------
A:-----0-0-0-0------------4-4-4-4------------------
E:-------------------------------------------------

Then play main riff twice

Next is C for oner measure

G:-------------------------------------------------
D:-------------------------------------------------
A:--------3--3--3---3----3-----------------3-3-----
E:-------------------------------------------------
   Now D for 1 measure
G:-------------------------------------------------
D:-------------------------------------------------
A:------5----5-----5-55-55-------------------------
E:-------------------------------------------------
then do the whole thing over again
Comments