Stevie Ray Vaughan - Traffic Jam Chords & Tabs

 

Traffic Jam Chords & Tabs

Stevie Ray Vaughan Chords & Tabs

Version: 1 Type: Tab 0 ratings
1 star 2 stars 3 stars 4 stars 5 stars
comments

Traffic Jam Tab

#----------------------------------PLEASE NOTE--------------------------------#
#This file is the author's own work and represents their interpretation of the#
#song. You may only use this file for private study, scholarship, or research.#
#-----------------------------------------------------------------------------#
#-- File created with Instab - http://www.pconline.com/~smcarey/instab.html --#
#-----------------------------------------------------------------------------#

Author/Artist: Stevie Ray Vaughan
Title: Traffic Jam
Album: -
Transcribed by: Deek
Email: fender_120@hhotmail.com

The verion that this guy put on was sooooo wrong, so i decided to do my own version of it.... ENJOY !

-|----------------------------------------------------------------------------|
-|----------------------------------------------------------------------------|
-|---------6--8--6vv-----------------6--8--6vv-------------------6--8---------|
-|---8--8-------------8-p-6----8--8--------------8-p-6-----8--8---------------|
-|--------------------------8---------------------------8---------------------|
-|----------------------------------------------------------------------------|
  [remember, with SRV, always tune down 1/2 a step !!!]  lot's distortion
[ Tab from: http://www.guitartabs.cc/tabs/s/stevie_ray_vaughan/traffic_jam_tab.html ]
------------------------------------------------------------------------------|
------------------------------------------------------------------------------|
-6vvv-------------------6--8--6vv------------------6--8--6vvv-----------------|
-------8-p-6------8--8--------------8-p-6----8--8--------------8//13--13------|
--------------8---------------------------8-----------------------------------|
------------------------------------------------------------------------------|


------------------------------------------------------------------------------|
------------------------------------------------------------------------------|
-11--13--11vv----------------------13b13-11vv-------------------6--8--6vv-----|
---------------13-p-11------13--13------------13-p-11-----8--8----------------|
------------------------13----------------------------13----------------------|
------------------------------------------------------------------------------|


------------------------------------------------------------------------------|
------------------------------------------------------------------------------|
----------------6--8--6vv-------------------13--15--13vv----------------------|
-8-p-6----8--8-------------8-p-6----15--15---------------15-p-13------13--13--|
-------8-------------------------8-------------------------------15-----------|
------------------------------------------------------------------------------|


------------------------------------------------------------------------------|
------------------------------------------------------------------------------|
-11--13--11vv---------------------6--8--6vv--------------6--------------------|
--------------13-p-11-------8--8-------------8-p-6----8--6--------------------|
----------------------13---------------------------8--------------------------|
------------------------------------------------------------------------------|
Comments