Stevie Ray Vaughan - Tin Pan Alley Chords & Tabs

 

Tin Pan Alley Chords & Tabs

Stevie Ray Vaughan Chords & Tabs

Version: 4 Type: Tab 0 ratings
1 star 2 stars 3 stars 4 stars 5 stars
comments

Tin Pan Alley Tab

Author/Artist: Stevie Ray Vaughan
Title: Tin Pan Alley
Album: Couldn't Stand the Weather
Transcribed by: Fuzz
Email: Fuzzlightyear01@hotmail.com

These are the main licks to Tin Pan Alley.

The key is Bm, and most of it is Pentatonic/Blues scale.
Play it with only slight distortion at the neck pickup, and use a strat!

1. Intro

-------7-|-7----------------|-----------------------------------|--------------------|
-----7---|-7----------------|-------------10--------------------|--------------------|
--9b-----|-7--7h9p8---------|---7-9p7--------9b11--9--7h9m-7m---|--------------------|
---------|-----------9p7tr9-|-9-------9-----------------------9-|-7------------7tr9--|
---------|------------------|-----------------------------------|----9-8-7-5---------|
---------|------------------|-----------------------------------|------------7-------|

2. Main Verse Lick
[ Tab from: http://www.guitartabs.cc/tabs/s/stevie_ray_vaughan/tin_pan_alley_tab_ver_4.html ]
  r		r
--x-------------x------------|-------------7-------------------|-------------7-------------|---|
---x-------------x-----------|-7---------7---------------------|-7---------7---------------|-7-|
----x--------9----x----------|-7----9b11------9h10p9p7---------|-7----9b11-----9b10r9-7----|-7-|
-----x-------------x--7--9---|-------------------------9-7-9---|------------------------9--|---|
------7-8-9-(9)-----9--------|---------------------------------|---------------------------|---|
---------------------------7-|-------------------------------7-|--------------------------7|---|

3. Main Chorus Lick

  r
--19s----------|-----------7---------------------------------------|-------|
--19s----------|-7-------7---10------------------------7-----------|--10---|
--19s----------|-7--9b11--------9b11-9p7---7-----------7-----------|--9----|
-----------7h9-|-------------------------9---9p7-9-9-9---9p7-------|-------|
-------7h9-----|---------------------------------------------7-8-9-|-------|
---------------|---------------------------------------------------|-------|

Tab guide
=========

h - hammer-on
p - pull off
s - slide
b - bend
m - microtone bend
x - l.h mute
r - rake
Comments