Stevie Ray Vaughan - Telephone Song Chords & Tabs

 

Telephone Song Chords & Tabs

Stevie Ray Vaughan Chords & Tabs

Version: 1 Type: Tab 0 ratings
1 star 2 stars 3 stars 4 stars 5 stars
comments

Telephone Song Tab

This is a pretty weird song.  Play it with a CryBaby wah through a '64 vibroverb custom
reissue for ultimate SRV tone.  This is a two-guitar song, w. one guitar playing a weird
rhythm line (Jimmy Vaughan) and another playing quick lead lines with a wah pedal (SRV).

intro

-12----12----12------12-----------------------12-----------------------|
-----------------------------------------------------------------------|
-12h14-12h14-12h14---12h14-12-----------------12h14-12-----------------|
------------------------------12~~-11h12-14------------12~~-11h12-14---|
-----------------------------------------------------------------------|
-------------------0------------------------0------------------------0-|
[ Tab from: http://www.guitartabs.cc/tabs/s/stevie_ray_vaughan/telephone_song_tab.html ]
-12----------------------12----12----12------12-----------------------|
----------------------------------------------------------------------|
-12h14-12----------------12h14-12h14-12h14---12h14-12-----------------|
----------12~~11h12-14--------------------------------12~~-11h12-14---|
----------------------------------------------------------------------|
-----------------------0-------------------0------------------------0-|

                                                  P.M........]
-12------------------------12---------------------------------------|
--------------------------------------------------------------------|
-12h14-12------------------12h14-12---------------------------------|
----------12~~-11h12-14-------------12~~-11h12-14-------------12-14-|
--------------------------------------------------------12-14-------|
------------------------0-------------------------12-15-------------|

This is the basic rhythm part.  Repeat this as needed to cover Jimmy's rhythm.

---------12------------12----|
-----------------------------|
---------12h14---------12h14-|
-----------------------------|
---12-14---------12-14-------|
-0-------------0-------------|


Solo to come.
Comments