Stevie Ray Vaughan - Scuttle Buttin' Chords & Tabs

 

Scuttle Buttin' Chords & Tabs

Stevie Ray Vaughan Chords & Tabs

Version: 2 Type: Tab 0 ratings
1 star 2 stars 3 stars 4 stars 5 stars
comments

Scuttle Buttin' Tab

   
SCUTTLE BUTTIN'
As recorded by Stevie Ray Vaughan And Double Trouble
(From the 1984 Album COULDN'T STAND THE WEATHER)

Music by Stevie Ray Vaughan

Gtr I (Eb Ab Db Gb Bb Eb) - 'S.R.V. overdrive electiric'

Intro + verse
 Q=160
                                        $
 4/4
  Gtr I
  E E   S S S a S +S  S S S S   +S  S S
|---------0-----------0-----------------|
|-------0---0-3s5-(5)---3p0-------------|
|---2b4---------------------2b3r(2)p0---|
|-------------------------------------2-|
|---------------------------------------|
|---------------------------------------|


    Q  E E E E E E   E E   S S S a S +S  S S S S S S S
||-----3---3-3---3-|-3-------0-----------0--------------|
||o----3---3-3---3-|-3-----0---0-3s5-(5)---3p0----------|
||-----------------|---2b4---------------------3p2p0----|
||-----------------|---------------------------------2--|
||o----------------|------------------------------------|
||--0----0-----0---|------------------------------------|


  Q  E E E E E E   E E   S S S a S +S  S S S S S S S   Q  E E E E E E
|----3---3-3---3-|-3-------0-----------0-------------|----3---3-3---3--|
|----3---3-3---3-|-3-----0---0-3s5-(5)---3p0---------|----2---2-2---2--|
|----------------|---2b4---------------------3p2p0---|-----------------|
|----------------|---------------------------------2-|-----------------|
|----------------|-----------------------------------|-0----0-----0----|
|-0----0-----0---|-----------------------------------|-----------------|


  +E  E   S S S a S +S  S S S S S S S
|-(3)-------0-----------0-------------|
|-(2)-----0---0-3s5-(5)---3p0---------|
|-----2b4---------------------3p2p0---|
|-----------------------------------2-|
|-------------------------------------|
|-------------------------------------|


                                              To Coda
  Q  E E E E E E   +E  E   S S S a S +S  S S S S S S S
|----3---3-3---3-|-(3)-------0-----------0-------------|
|----3---3-3---3-|-(3)-----0---0-3s5-(5)---3p0---------|
|----------------|-----2b4---------------------3p2p0---|
|----------------|-----------------------------------2-|
|----------------|-------------------------------------|
|-0----0-----0---|-------------------------------------|


  1.
  Q  E E E E E E   +E  E S S S a S +S  S S S S S S S   Q  E E E E E E
|----------------|---------0-----------0-------------|----3---3-3---3--|
|----3---3-3---3-|-(3)-x-0---0-3s5-(5)---3p0---------|----3---3-3---3--|
|----2---2-2---2-|-(2)-x---------------------3p2p0---|-----------------|
|----------------|---------------------------------2-|-----------------|
|-2----x---------|-----------------------------------|-----------------|
|------x-----0---|-----------------------------------|-0----0-----0----|


  E E   S S S a S +S  S S S S S S S
|-3-------0-----------0--------------||
|-3-----0---0-3s5-(5)---3p0---------o||
|---2b4---------------------3p2p0----||
|---------------------------------2--||
|-----------------------------------o||
|------------------------------------||


  2.
  Q  E E E E E E   +E  e   S S S a S +S  S S S S S S S
|----------------|-----------0-----------0-------------|
|----3---3-3---3-|-(3)-----0---0-3s5-(5)---3p0---------|
|----2---2-2---2-|-(2)-2b4---------------------3p2p0---|
|----------------|-----------------------------------2-|
|-2----x-----x---|-------------------------------------|
|------x-----x---|-------------------------------------|


  Q  E E E E E E    E  S S S S S S S S S S S S E
|----3---3-3-----|---------0-0-0-0-----0-0-0-0-0-||
|----3---3-3-----|-----3s5---------3s5-----------||
|----------------|-(0)---------------------------||
|----------------|-(0)---------------------------||
|----------------|-------------------------------||
|-0----0-----0-0-|-------------------------------||


 Guitar Solo
  E E a Q  E E E E   S S S S S   +S  S S S S S S E E   Q  E E E E E  E
|----------0-------|---0-----------------------------|----3---3-3--------|
|----------0-0-0-3s|=5---3p0-------------------------|----3---3-3---(0)--|
|-2---0h1----1-1---|---------2b3r(2)p0---2p0---------|--------------(0)--|
|-------2----------|-------------------2-----2p0---2-|-------------------|
|---x--------------|-----------------------------2---|-------------------|
|------------------|---------------------------------|-0----0-----0------|


  a E S a S +S  S a E S a E S a E S a S
|-----0---------0-----0-----0-----0-----|
|-3s5---3s5-(5)---3s5---3s5---3s5---3s5-|
|---------------------------------------|
|---------------------------------------|
|---------------------------------------|
|---------------------------------------|


  +S  S a E S a E S a E S a S +S  S a E
|-----0-----0-----0-----0---------0-----|
|-(5)---3s5---3s5-0-3s5---3s5-(5)---3s5-|
|---------------------------------------|
|---------------------------------------|
|---------------------------------------|
|---------------------------------------|


  S a E S a E S a S +S  S a S S S S S S   Q  E E E E E E
|-0-----0-----0---------0---------------|----3---3-3-------|
|---3s5---3s5---3s5-(5)---3s5-0---------|----3---3-3-------|
|-------------------------------2p0---0-|--------------2b4-|
|-----------------------------------2---|------------------|
|---------------------------------------|------------------|
|---------------------------------------|-0----0-----0-----|


  S S S S   +S  S S S S   +S  S S S   S S S
|---0-----------0----------------------------|
|-0---0-3b5-(5)---3p0------------------------|
|---------------------2b3r(2)p0---2b4p0------|
|-------------------------------2-------2p0--|
|--------------------------------------------|
|--------------------------------------------|


  Q  E E E E E E   E   S  S  E  E  E  E  E  E    Q      a E E E E E E
|----------------|----------------------------|-----------------------|
|----3---3-3---3-|---/15-15-15-15-15-14-14-12-|-12------------2-0-----|
|----2---2-2---2-|---/16-16-16-16-16-14-14-12-|-12b12.5-4s2---2-0-----|
|----1---1-1-----|-x--------------------------|-------------2-----2p0-|
|-2--------------|-x--------------------------|-----------------------|
|------0-----0---|----------------------------|-----------------------|

[ Tab from: http://www.guitartabs.cc/tabs/s/stevie_ray_vaughan/scuttle_buttin_tab_ver_2.html ]
  E E  E  E  E  E     E  E    E     E  E  E  E     E E  E
|---7s12-12-14-------------|-------12-12----------12---------|
|---7s12-12-14-12-------12-|-------12-12-12-15b17------------|
|-----------14-12b13----12-|-14b16-------------------0-14b16-|
|--------------------14----|-------------------------0-------|
|--------------------------|---------------------------------|
|-0------------------------|---------------------------------|


                                                |---3----|
   +S   S  S  S  s  S     +E   S  S  S  S      +S   +S   S  S  S
|---------12-12---------------12---------------------------------|
|------12-12-12-15-15b17-(17)----15-12---------------------------|
|-(16)---------------------------------14b16==(16)r(14)p12-------|
|----------------------------------------------------------14p12-|
|----------------------------------------------------------------|
|----------------------------------------------------------------|


   ~~~~~
   E  E  E S S  E  E  E  E    E  E  E E  E  E  E  E
|--------------------------|------------------------|
|-------12-----14-12-------|------------------------|
|-------12-x-x-14-12----12-|----12-13---12-13-12-13-|
|-14-14----x-x-------14-12-|-14-11-12---11-12-11-12-|
|--------------------------|------------------------|
|--------------------------|----------0-------------|


  E  S  S  s  S  S  s  S  S  s  S  S  s  S  S
|---------------------------------------------|
|---------------------------------------------|
|---11s12----11s12----11s12----11s12----11s12-|
|---10s11-10-------10-------10-------10-------|
|-0-------------------------------------------|
|-0-------------------------------------------|


  S  S  S S  S  S  S  S  S  S  S  S  S  S  S  S
|-----------------------------------------------|
|-----------------------------------------------|
|-x-11s12-x-11s12----11s12----11s12----11s12----|
|-x-10s11-x-10s11-10-10s11-10-10s11-10-10s11-10-|
|-----------------------------------------------|
|-----------------------------------------------|


   a  E  E  E  E  a  E  E  E     E
|----------------------------------|
|----------14----------------------|
|-11s12s13-14----12s13-------------|
|-10s11s12----14-11s12-14-12b13-14-|
|----------------------------------|
|----------------------------------|


    E   E  E  a  E  S  S  S  S  E       E
|-------------------------------------------|
|------14----11s12---------------------12---|
|------14----12s13-------------14b16==(16)r-|
|-(14)----14-------14p12----12--------------|
|------------------------14-----------------|
|--12---------------------------------------|


   E  E     E  S  S  E     E  E  a E
|-12-------12-14p12-------12-12------|
|----15b17----------15b16-12---------|
|-------------------------------12s2-|
|------------------------------------|
|------------------------------------|
|------------------------------------|


  +S  S S S E   S S S S S S a E E   Q  E E E E E E   E   E  E  E  E E E   +E
|-----0---------------------------|----3---3-3-----|---/10-10--9--9-7-7---(7)-|
|-----0---------------------------|----3---3-3-----|---/12-12-10-10-8-8b9-(9)-|
|-(2)-0---0-2b3-2p0-2p0-----------|----------------|--------------------------|
|-------2---------------2-0-----2-|----------------|--------------------------|
|---------------------------1s2---|----------------|--------------------------|
|---------------------------------|-0----0-----0-0-|-0------------------------|


  E   +E  E E   +E  E Q      E Q    E Q    E E
|---------7-7---(7)-7-7----|-7-7----7-7----7---|
|-8b9-(9)---8b9-(9)---8b9--|---8b9----8b9----8-|
|--------------------------|-------------------|
|--------------------------|-------------------|
|--------------------------|-------------------|
|--------------------------|-------------------|


  Q    Q    Q    E E    E E E E E Q    E
|-7----7----7----7---|-10---9---7-7--------|
|-8b9--8b9--8b9----8-|----8---8---8b9------|
|--------------------|-----------------4s==|
|--------------------|---------------------|
|--------------------|---------------------|
|--------------------|---------------------|


                                                   Verse
  E E E E E S S E   E    E  E a E E a S S E E S S   Q  E E E E E E
|-----5---5-6p5-----5-|--5--------0---------------|----3---3-3--------|
|---5---8-------8b9-5-|-(5)-8-----0---------------|----3---3-3--------|
|-6-------------------|-------2s4---3s2-0---0-----|--------------2b4--|
|---------------------|-------------------2---2p0-|-------------------|
|---------------------|---------------------------|-------------------|
|---------------------|---------------------------|-0----0-----0------|


  S S S S   +S  S S S S   +S  S S S   S S S
|---0-----------0---------------------------|
|-0---0-3b5-(5)---3p0-----------------------|
|---------------------2b3r(2)p0---2b4p0-----|
|-------------------------------2-------2p0-|
|-------------------------------------------|
|-------------------------------------------|


  Q  E E E E E E   +E  e   S S S a S +S  S S S S S S S
|----------------|-----------0-----------0--------------|
|----3---3-3---3-|-(3)-----0---0-3s5-(5)---3p0----------|
|----2---2-2---2-|-(2)-2b4---------------------3p2p0----|
|----------------|-----------------------------------2--|
|-2----x---------|--------------------------------------|
|------x-----0---|--------------------------------------|


                                                  D.S. al Coda
  Q  E E E E E E   E E   S S S a S +S  S S S S S S S
|----3---3-3-----|-3-------0-----------0-------------||
|----3---3-3-----|-3-----0---0-3s5-(5)---3p0---------||
|----------------|---2b4---------------------3p2p0---||
|----------------|---------------------------------2-||
|----------------|-----------------------------------||
|-0----0-----0-0-|-----------------------------------||


  &
  Q  E E E E E E   +E  E   S S S a S +S  S S S S S S S
|----------------|-----------0-----------0-------------|
|----3---3-3---3-|-(3)-----0---0-3s5-(5)---3p0---------|
|----2---2-2---2-|-(2)-2b4---------------------3p2p0---|
|----1---1-1---1-|-(1)-------------------------------2-|
|-2----x---------|-------------------------------------|
|------x-----0---|-------------------------------------|


  Q   E E  E  E E E    q  Q  H
|----15---15-15-----|-15----------*|
|----15---15-15-----|-15----------*|
|-------------------|-------------*|
|----14---14-14-----|-14----------*|
|-------------------|-------------*|
|-0-----0-------0-0-|-------------*|
Comments