Stevie Ray Vaughan - Riviera Paradise Chords & Tabs

 

Riviera Paradise Chords & Tabs

Stevie Ray Vaughan Chords & Tabs

Version: 2 Type: Tab

Riviera Paradise Tab

   
-----------------------------------------------------------------------------
			     RIVIERA PARADISE - Stevie Ray Vaughan
-----------------------------------------------------------------------------

Tuning: EADGBe

Intro:

E|-10-12-10-8-10-8-6-8-6----------------0-0----6-8-8/11-10-8-7---|
B|-10-------8------6-----/9-7---------0---0----6-----------------|
G|-10-------8------6-----/8-8-------0-----0----6-----------------|
D|-9--------7------5-----/7-7-----4-------4----5-----------------|
A|------------------------------7---------7----------------------|
E|----------------------------0-----------0----------------------|

E|-------------------------7--7--7--7----------------------------|
B|-/10-----7------10-10-7--8--7--7--7-----7h8p7------------7-----|
G|-/9------8------11-11-8--9--9--7--8-----------7--------7-------|
D|-/10-----6------9--9--6--10-10-10-10------------9----9---------|
A|--------------------------------------------------10-----------|
E|------7----7/10------(7)--------------0--------------------0h5-|

E|---------------------------------------------------------------|
B|---7---7-7----------7-8-7h8p7------------7-------7---7-7-6-5-5-|
G|---6---6-6--------------------7--------7---------6---6-6-5-5---|
D|---5---5-5----------------------9----9-----------5---5-5-4-7---|
A|-------------5/7-7----------------10---------------------------|
E|-5---5-----7-------------------------------0h5-5---5-----4-----|

E|---------------------------------------------------------------|
B|-6-5h6p5----------5-------5---5-5-5-5-5-5-5h6p5----------5-----|
G|---------5------5---------4---4-4-4-5-5-5------5-------5-------|
D|-----------7---7----------5---5-5-5-7-7-7--------7---7---------|
A|-------------8-------------------------------------8-----------|
E|--------------------0h3-3---3------------------------------0h3-|
                                                       Harm.
E|---------------------------------------------------------------|
B|---5---5-5-4-3-3-4-3h4p3-----------3-------4---3-1-------------|
G|---4---4-4-3-3-----------3-------3---------3---2-2---------12~-|
D|---5---5-5-4-5-------------5---5-----------2---1-1------12~----|
A|-----------------------------6-----------------------12~-------|
E|-3---3-------------------------------0h2-2---2-----0-----------|

E|------12~------------------------------------------------------|
B|-12~-----------------------------------------------------------|
G|---------------------------------------------------------------|
D|---------------------------------------------------------------|
A|---------------------------------------------------------------|
E|---------------------------------------------------------------|
solo:
E|----------------------------------------------------------------|
B|-12-15-15b17-15b17-15-12-15p12----12----------------------------|
G|-------------------------------14----14p12----12-14b16p12-------|
D|-------------------------------------------14-------------14p12-|
A|----------------------------------------------------------------|
E|----------------------------------------------------------------|

E|------12-12-12-12----12-12-12-12--------------------------------|
B|------------------------------------12-15p12-15p12-15--15b17p12-|
G|---------12-14-14/15-14-12-14-12--------------------------------|
D|-14---14--------------------------------------------------------|
A|----------------------------------------------------------------|
E|----------------------------------------------------------------|

E|---------------------------------------------------------------|
B|-------12----------------------12-15-15b17-15b17-15-12-15p12---|
G|-14b16----14p12----12-14b16------------------------------------|
D|----------------14---------------------------------------------|
A|---------------------------------------------------------------|
E|---------------------------------------------------------------|

E|---------------------------------------------------------------|
B|----12---------------------------------------------------------|
G|-14----14p12----12-14b16-14b16-14-12-16b18-14-12-14p12---------|
D|-------------14----------------------------------------14-14---|
A|---------------------------------------------------------------|
E|---------------------------------------------------------------|


E|----------------------------------------------------------------|
B|-------------------11/12-12-12-12-12-12-11/12-12-11/12-12-11/12-|
G|----------------------------------------------------------------|
D|-14-12----------------------------------------------------------|
A|-------14p13p12-10----------------------------------------------|
E|----------------------------------------------------------------|

E|-------------11/12-11/12-------15--------15--------15----------|
B|-12-11/12-12-11/12-11/12----17----17--17----17--17----17--17---|
G|---------------------------------------------------------------|
D|---------------------------------------------------------------|
A|---------------------------------------------------------------|
E|---------------------------------------------------------------|

E|-15-17-15-17/19-19-12-12-15p12----12---------------------------|
B|-------------------------------15----15p12----12---------------|
G|-------------------------------------------14----14p12----12---|
D|-------------------------------------------------------14------|
A|---------------------------------------------------------------|
E|---------------------------------------------------------------|

E|---------------------------------------------------------------|
B|---------------------------------------------------------------|
G|-14-12-14-12-14-12-14-12-14/15\14p12----12---------------------|
D|-------------------------------------14----14p12----12h14------|
A|-------------------------------------------------14------------|
E|---------------------------------------------------------------|

E|-------------------------15-17h18p17p15----15-17/19-19-12-12---|
B|----------------------17----------------17---------------------|
G|---------------------------------------------------------------|
D|-14p12---------------------------------------------------------|
A|-------14p13p12\10---------------------------------------------|
E|---------------------------------------------------------------|

E|-15-15-------12-12---------------------------------------------|
B|-------15-15-------12-12-15-15---------------------------------|
G|-------------------------------12-12-14-14-12-12-11~--11h12p11-|
D|---------------------------------------------------------------|
A|---------------------------------------------------------------|
E|---------------------------------------------------------------|
[ Tab from: http://www.guitartabs.cc/tabs/s/stevie_ray_vaughan/riviera_paradise_tab_ver_2.html ]
E|----------------------------------------------------------------|
B|-------------------------------12-15p12-------12----------------|
G|----11----------------12-14b16----------14b16----14p12----------|
D|-14----14p12----12-14----------------------------------14p12p14-|
A|-------------14-------------------------------------------------|
E|----------------------------------------------------------------|

E|---------------------------------------------------------------|
B|---------------------------------------------------------------|
G|---------------------------------------------------------------|
D|-14-12---------------------------------------------------------|
A|-------14p13p12----12-10-12b14-12b14~---------10-12-10-12b14---|
E|----------------15----------------------10/12------------------|

E|---------------------------------------------------------------|
B|---------------------------------------------------------------|
G|---------------------------------------------------------------|
D|---------------------------------------------------------------|
A|-12-10-12--12-10-12/14-14-12b14~---------10-12-10-12b14-10-12--|
E|-----------------------------------10/12-----------------------|

E|------------------------------------12-12-x-x-12----12-x-x-----|
B|--------------------------12--------------x-x----------x-x-----|
G|--------------------------12h14p12-----12-x-x-15/16-16---x-----|
D|----------------12-14--14-----------14------x------------------|
A|-12-12-10-12/14------------------------------------------------|
E|---------------------------------------------------------------|


E|-12----12-x-x-12----12-x-x-12----12-x-x-12\----12----12----12--|
B|----------x-x----------x-x----------x-x-12\----15-15-12-15-----|
G|-15/16-16-x---15/16-16-x-x-15/16-16---x------------------------|
D|---------------------------------------------------------------|
A|---------------------------------------------------------------|
E|---------------------------------------------------------------|

E|----------12-------12h15-15-14-14-12-12------------------------|
B|-15-12-15----15-12----------------------15-15-12-12------------|
G|----------------------------------------------------14-14-12---|
D|---------------------------------------------------------------|
A|---------------------------------------------------------------|
E|---------------------------------------------------------------|

E|-------------------------------------------------------12-------|
B|----------------------------------------------------12----15p12-|
G|-12-12-11-11-9~--------12-14b16p12-------12---14b16-------------|
D|-----------------12-14-------------14-14------------------------|
A|----------------------------------------------------------------|
E|----------------------------------------------------------------|

E|-14-12h13p12-------15b17p12--17b19-15-------15br17~--15br17~---|
B|-------------15p12--------------------17~----------------------|
G|---------------------------------------------------------------|
D|---------------------------------------------------------------|
A|---------------------------------------------------------------|
E|---------------------------------------------------------------|

E|-15b17-15b17-15-12-15-12-----------------------------------------|
B|-------------------------15p12-------12--------------------------|
G|-------------------------------14b16----14p12----12----12-14b16~-|
D|----------------------------------------------14----14-----------|
A|-----------------------------------------------------------------|
E|-----------------------------------------------------------------|

E|---------------------------------------------------------------|
B|---------------------------------------------------------------|
G|-16~--16~--11~-----12------------------------------------------|
D|-x--------------14----14--14p12-------------------------12-----|
A|-x------------------------------14p13p12-10-12-10-12/14----14--|
E|---------------------------------------------------------------|
             Harm.
E|------------12-------------------------------------------------|
B|------------12-------------------------------------------------|
G|------------12-------------------------------------------------|
D|-12--14--------------------------------------------------------|
A|---------------------------------------------------------------|
E|---------x-----------------------------------------------------|
Chords:

  A13  Em9  A13  Ab13  Fmaj7  G6  F#maj7 Fmaj7   G6    Gb6
E|---------------------------------------------------------------|
B|-7----7----7----6-----5------5---6------5-------5-----4--------|
G|-6----7----6----5-----5------4---6------5-------4-----3--------|
D|-5----5----5----4-----7------5---8------7-------5-----4--------|
A|------7---------------8----------9------8----------------------|
E|-5---------5----4------------3------------------3-----2--------|

  Ebmaj7  F#13  B7#9  B7b9
E|------------------------------------------0--------------------|
B|-3-------4-----3-----1--------------------0--------------------|
G|-3-------3-----2-----2-----------------4--0--------------------|
D|-5-------2-----1-----1----------2-4-5-----2--------------------|
A|-6-------------2-----2--------2-----------2--------------------|
E|---------2------------------0-------------0--------------------|


Interlude:
    4x
E|---------------------------------------------------!
B|--------------------------------------------------o!
G|----12-12/14-14----12/14-14----12-12/16-----12-12--!
D|-14-------------14----------14-----------14--------!
A|----10-10/12-12----10/12-12----10-10/14-----10-10-o!
E|-12-------------12----------12-----------12--------!

E|---------------------------------------------------------------|
B|---------------------------------------------------------------|
G|----12-12/14-14----12/14-14----12-12/16-16-16-16-16-16---------|
D|-14-------------14----------14---------------------------------|
A|----10-10/12-12----10/12-12----10-10/14-14-14-14-14-14---------|
E|-12-------------12----------12---------------------------------|

E|-------------------------------------------14-14/15-15-15------|
B|----------------------------------------15----------------15---|
G|----12-12/14-14----12/14-14----12-12/16----11-11/12-12-12------|
D|-14-------------14----------14----------12----------------12---|
A|----10-10/12-12----10/12-12----10-10/14------------------------|
E|-12-------------12----------12---------------------------------|

E|---------------------------------------------------------------|
B|-15-15--15/17-17-17--------------------------------------------|
G|--------------------14-14-12-12-12/14--------------------------|
D|-12-12--12/14-14-14-------------------14-----------------------|
A|--------------------12-12-10-10-10/12--------------------------|
E|--------------------------------------12-----------------------|


| /  slide up
| \  slide down
| h  hammer-on
| p  pull-off
| ~  vibrato
| +  harmonic
| x  Mute note
=============================================================================