Stevie Ray Vaughan - Pride And Joy Chords & Tabs

 

Pride And Joy Chords & Tabs

Stevie Ray Vaughan Chords & Tabs

Version: 1 Type: Bass Tab 0 ratings
1 star 2 stars 3 stars 4 stars 5 stars
comments

Pride And Joy Bass Tab

"PRIDE AND JOY"
BY STEVIE RAY VAUGHN
TABBED BY FRANKMAN      tuning is a 1/2 step down

                             INTRO

Gb-----------------------------------------------------------------
Db---------------------------------7-5-4---7-5-4-------------------
Ab-7-5-4---7-5-4---7-5-4---7-5-4---------7-------7-7-5-4---7-5-4---
Eb-------7-------7-------7-------7-----------------------7-------7-

Gb---------------------------------
Db-------6-7---------6-7-8-9-7-8-9-
Ab---6-9-----4-5-6-7---------------
Eb-7-------------------------------

                  VERSE AND CHORUS

Gb-----------------------------------------------------------------
Db---------------------------------------4-7-----------------------
Ab-7-5-4---7-----4-7-5-4---7-----4---4-7-----4-5-6-7-----4-7-5-4---
Eb-------7---4-7---------7---4-7---5-----------------4-7---------4-

Gb-------------------------------------------------------------------
Db-------6-7---------6-7-8-9-7-8-9---------------------------4-5-6-7-
Ab---6-9-----4-5-6-7---------------7-----4-7-5-4---7-----4-7---------
Eb-7---------------------------------4-7---------7---4-7-------------

Gb---------------------------------------------------------------
Db-----4-7-----------------6-7-8-9-----6-7---------6-7-8-9-7-8-9-
Ab-4-7-----4-5-6-7-----4-7---------6-9-----4-5-6-7---------------
Eb-----------------4-7-------------------------------------------
[ Tab from: http://www.guitartabs.cc/tabs/s/stevie_ray_vaughan/pride_and_joy_btab.html ]
Gb-----------------------------------------------------------------
Db---------------------4-5-6-7-----4-7-----------------6-7-8-9-----
Ab-5^7-R-5^7-R-5^7-R-7---------4-7-----4-5-6-7-----4-7---------6-9-
Eb---------------------------------------------4-7-----------------

Gb---------------------------
Db-6-7---------6-7-8-9-7-8-9-
Ab-----4-5-6-7---------------
Eb---------------------------

                           GUITAR SOLO

Gb-------------------------------------------------------------------------
Db----66-77-88-99-11,11-12,12-13,13-14,14-12,12-11,11-99-------------------
Ab-77----------------------------------------------------77-55-44----------
Eb----------------------------------------------------------------77-55-33-

Gb-------------------------------------------------------------------------
Db----------------------------------66-77-88-99-------66-77-------------66-
Ab----------44-55-66-77-------44-77-------------66-99-------44-55-66-77----
Eb-22-00-55-------------44-77----------------------------------------------

Gb-------------------------------------------------------------------------
Db-77-88-9-7-8-9---------------------------------7-----4-7-----------------
Ab---------------7-5-4---7-----4-7-5-4---7-----4---4-7-----4-5-6-7-----4-7-
Eb---------------------7---4-7---------7---4-7---------------------4-7-----

Gb---------------------------------------
Db-6-7-8-9-----6-7---------6-7-8-9-7-8-9-
Ab---------6-9-----4-5-6-7---------------
Eb---------------------------------------

                         VERSE/CHORUS

Gb---------------------------------------------------------------------
Db---------------------------------------------6-7-8-9-----6-7---------
Ab-5^7-R-5^7-R-5^7-R-----------4-5-6-7-----4-7---------6-9-----4-5-6-7-
Eb-------------------5-3-2-0-5---------4-7-----------------------------

Gb---------------
Db-6-7-8-9-7-8-9-
Ab---------------
Eb---------------
Comments