Stevie Ray Vaughan - Mary Had A Little Lamb Chords & Tabs

 

Mary Had A Little Lamb Chords & Tabs

Stevie Ray Vaughan Chords & Tabs

Version: 1 Type: Bass Tab 0 ratings
1 star 2 stars 3 stars 4 stars 5 stars
comments

Mary Had A Little Lamb Bass Tab

"MARY HAD A LITTLE LAMB"
BY STEVIE RAY VAUGHN       tune a 1/2 step down
TABBED BY FRANKMAN

                         INTRO

Gb-----------------------------------------------------------------------
Db---------------------------------5-6-7-7----5-7-77---------------------
Ab-7-7----5-7-7----5-7-7----5-7-77---------77--------4-5-6-7-7----5-7-77-
Eb-----77-------77-------77------------------------------------77--------
[ Tab from: http://www.guitartabs.cc/tabs/s/stevie_ray_vaughan/mary_had_a_little_lamb_btab.html ]
Gb----------------------------------------
Db-6-7-8-9-9------7-77--------------------
Ab-----------99-7------4-5-6-7----5-6-7-R-
Eb-----------------------------77---------

                          VERSE

Gb--------------------------------------------------------------------
Db-7----5-7-77-------------------6-7-8-9------7-77--------------------
Ab---77--------4-5-6-7----5-7-77---------99-7------4-5-6-7----5-6-7-R-
Eb---------------------77----------------------------------77---------

             just keep repeating this
          this is from memmory but its pretty close..
Comments